Аккорды Ленинград - Матросы

Добавлено: @romashka
Дата добавления: 16 Марта 2013г.
Рейтинг:
0.0
Просмотров: 438
Транспонировать - +
[Интро]

Am Dm
Сидели два матроса курили папиросу,
Dm Am E7 Dm
А что за папиросу осталось под вопросом,
А что за папиросу осталось под вопросом.

рифф

"Герцеговина Флора" была тогда не в моде,
Курила вместе с ними труба на пароходе,
Курила вместе с ними труба на пароходе.

рифф

Стоял тогда над морем абсолютный штиль,
А мир висел на волоске, горел уже фитиль,
А мир висел на волоске, горел уже фитиль.

Интро:

Am G Am G Am
e|--------------------------------------------|
B|--------------------------------------------|
G|--------------------------------------------|
D|--------------------------------------------|
A|-7-7-6-5--5-5-4-3--7-7-6-5--5-3-2-3-2-3-5-7-|
E|--------------------------------------------|

Am G Am G Am
e|--------------------------------------------|
B|--------------------------------------------|
G|--------------------------------------------|
D|--------------------------------------------|
A|-7-7-6-5--5-5-4-3--7-7-6-5--5-3-2-3---------|
E|--------------------------------------------|

Am G Am G Am G# Am
e|--------------------------------------------|
B|--------------------------------------------|
G|--------------------------------------------|
D|--------------------------------------------|
A|-7-7-6-5--5-5-4-3--7-7-6-5--5-3-2-----------|
E|-----------------------------------5b-4-5---|

Рифф играется также как интро
comments powered by Disqus
Наверх