Аккорды Леонид Сергеев - Колоколенка

Добавлено: @romashka
Дата добавления: 03 Июня 2013г.
Рейтинг:
5.0
Просмотров: 845
Транспонировать - +
intro:

 Am             Dm         E        Am

1---------0--0--0--0--------0--1---1--0----------------------0------------
2---------------------1------------------3----------0--0--0-----3--0--1---
3------------------------2------------------2----------------------------2 
4------2------------------------------0-----------------------------------
5-----0---------------------------------------------2---------------------
6-----------------------------------------------0-------------------------

Am    Dm       G    C

1-----0---------1--0---------------1----------------0--------0--------0
2--------1------------3------------0--------------1----1--------1------
3-----------2------------2------0-----0---------0---------0--------0---
4--2------------0-----------------------------2------------------------
5-0-----------------------------------------3--------------------------
6-----------------------------3-----------0----------------------------


     A7      Dm  G      C  Am

1-------3--3--3--0--1--0--------3--3--3--1---0----------------------
2------2------------------3----------------------3--1---------------
3-----2----------------------2--------------------------------------
4----2--------------0-----------------------------------------------
5--------------------------------------------3----------0-----------
6-------------------------------3-----------------------0-----------

Am        Dm E   Am

1--0--0--0-----1--0-------------0----------I----Далее----------------
2-----------1--------3----0--0-------------I----вс-------------------
3-----------------------------------1------I------ту------и-голос----
4--------------0---------------------------I--------па---------------
5----------------------------------------0-I-----------ют------------
6-----------------------0------------------I----аккорды--------------



Вокал:

Am     Dm
На горе, на горочке
E  Dm
Стоит колоколенка,
Am    Dm  
А с нее по полюшку 
G     C 
Лупит пулемет.

A7    Dm
И лежит на полюшке
G    C
Сапогами к солнышку
Am         Dm
С растакой-то матерью
E       Am 
Наш геройский взвод.

Мы землицу лапаем
Скуренными пальцами.
Пули как воробушки
Плещутся в пыли.

Дмитрия Горохова
Да сержанта Мохова
Эти вот "воробушки"
Взяли да нашли.

Тут старшой Крупейников
Говорит мне тоненько,
Чтоб я принял смертушку
За честной народ,

Чтоб на колоколенке
Захлебнулся кровушкой
Растакой-разэтакий
Этот сукин кот.

Я к своей винтовочке
Крепко штык прилаживал,
За сапог засовывал 
Старенький наган.

"Славу" третьей степени
Да медаль отважную
С левой клал сторонушки 
Глубоко в карман.

Мне сухарик подали,
Мне чинарик бросили,
Мне старшой Крупейников
Фляжку опрастал.

Я ее испробовал,
Вспомнил маму родную
Да по полю ровному
Быстро поюежал.

А на колоколенке
Сукин кот занервничал!
Стал меня выцеливать,
Чтоб наверняка...

Да видать,сориночка,
Малая песчиночка
В глаз попала лютому:
Дернулась рука.

Я-то винтовку выронил,
Да упал за камушек,
Чтоб подумал вражина,
Будто зацепил.

Да он, видать, был стреляный-
Сразу не поверил мне,
Да по камню-камушку 
Длинно засадил.

Да видно не судьба была
Пули мне отпробывать.
Сам старшой Крупейников
Встал как на парад...

Сразу с колоколенки,     I
Весело чирикая,          I Повтор два раза
В грудь слетели пташечки,I 
Бросили назад.           I 

 Внезапно медленно:

Горочки, пригорочки...
Башни, колоколенки...
Что кому назначено?
Чей теперь черед?

Рана незажитая,
Память неубитая.
Солнышко. Да полюшко.
Да геройский взвод.
Наверх