Аккорды «Les Hearts»

Les Hearts
Популярные аккорды Les Hearts:
алфавиту | просмотрам | случайно
  • Каподастр на 1 лад
     
       Em         
    At night in the soul
         G
    Is not so lonenly
         Em              G
    Casino opens at night
    Em             G      
    Street races begin at night
    Em              G       
    And adult…
  • Каподастр на 3 лад
    
    Intro: Am C G D
    
    Verse 1:
    Am
    At school
    C
    We will be honest
    G
    Nobody listens to you
    D
    Whatever you say
    Am   C        G D
    Damn it is sad
    
    Verse 2:
    Am
    Adulthood
    C
    The dream of all children
    G
    Including
    D…
  • Verse 1:
        Em
    You know what can help
         Am
    When you feel bad
         C              D
    When everyone turns away from you
    Em
    I love such people
    Am                  C
    You love such people
    
    Pre-Chorus:
    e----------------------
    B----------------------
    G------0-------0-------
    D----2---2---2---2---2-
    A--2-------2-------2---
    E----------------------
    
    Chorus:…
  • Intro: C5
    
    Verse 1:
    Asus2               Em
    I'll start this off without any words
    Asus2             Em
    I just to want to complain to you
    Asus2              Em
    Maybe you will not be intrested
    Asus2            Em
    Just…
  • Intro:
    e-----------------
    B-----------------
    G-----------------
    D---7-------5-----
    A-6---6---6---6---
    E-------7-------5-
    
    Main Theme:
    ---------
    ---------
    ---------
    -----6---
    ---4---5-
    -5-------
    
    Solo:
    ----------------------------------------------------------------------------
    ----------------------------------------------------------------------------
    ----------------------------------------------------------------------------
    -----9-------8-------9-------10-------6-------5-------6-------7-------------
    ---7---7---6---6---7---7---8----8---4---4---3---3---4---4---5---5---6-7-8-7-
    -8-------7-------8-------9--------5-------4-------5-------6-----------------
    
    Основной…
  • Intro:
    e------------------------------------
    B------------------------------------
    G------------------------------------
    D------------------------------------
    A------------------0h4-4/6-6---6-----
    E-2-2-2-6-8^10-8-------------7---7---
    
    Verse:
    e---------------------------------------------------
    B---------------------------------------------------
    G-----0-------0-------0-------0-------0-------0-----
    D---3-------3-------1-------1-------2-------2-------
    A-3-------3-------1-------1-------2-------2---------
    E-------x-------x-------x-------x-------x-------x---
    
    Chorus:
    G5…
Наверх