Аккорды Les Hearts - Why

Добавлено: @romashka
Дата добавления: 28 Октября 2019г.
Рейтинг:
0.0
Просмотров: 16
Транспонировать - +
Intro:
e-----------------
B-----------------
G-----------------
D---7-------5-----
A-6---6---6---6---
E-------7-------5-

Main Theme:
---------
---------
---------
-----6---
---4---5-
-5-------

Solo:
----------------------------------------------------------------------------
----------------------------------------------------------------------------
----------------------------------------------------------------------------
-----9-------8-------9-------10-------6-------5-------6-------7-------------
---7---7---6---6---7---7---8----8---4---4---3---3---4---4---5---5---6-7-8-7-
-8-------7-------8-------9--------5-------4-------5-------6-----------------

Основной темой играется вся песня.
comments powered by Disqus
Наверх