Аккорды Les Hearts - In The Avenue

Добавлено: @romashka
Дата добавления: 09 Июля 2020г.
Рейтинг:
0.0
Просмотров: 167
Транспонировать - +
Intro: (Clean)
e|----------------------|
B|----------------------| 
G|----------------------|  
D|-9---8---9---10---10--| x4  
A|-9---8---9---10---10--| 
E|-7---6---7---8----8---|

Verse 1: (Drive)
e|--------------------------------|
B|--------------------------------|
G|--------------------------------|
D|-9--9--8--8--9--9--10-10-10-10--| x13
A|-9--9--8--8--9--9--10-10-10-10--|
E|-7--7--6--6--7--7--8--8--8--8---|

Chorus:
e|---------------------------------------------------------------------------|
B|---------------------------------------------------------------------------|
G|---------------------------------------------------------------------------|
D|-7--7--7--7--7--7--7--7--7--7--7--7--6--6--6--6--6--6--6--6--6 -7/6-6----| x1
A|-7--7--7--7--7--7--7--7--7--7--7--7--6--6--6--6--6--6--6--6--6 -7/6-6----|
E|-5--5--5--5--5--5--5--5--5--5--5--5--4--4--4--4--4--4--4--4--4 -5/4-4----|

e|---------------------------------------------------------------------------|
B|---------------------------------------------------------------------------|
G|---------------------------------------------------------------------------|
D|-7--7--7--7--7--7--7--7--7--7--7--7--6--6--6--6--6--6--6--6--6--6--6--6---| x2
A|-7--7--7--7--7--7--7--7--7--7--7--7--6--6--6--6--6--6--6--6--6--6--6--6---|
E|-5--5--5--5--5--5--5--5--5--5--5--5--4--4--4--4--4--4--4--4--4--4--4--4---|


Verse 2:
e|--------------------------------|
B|--------------------------------|
G|--------------------------------|
D|-9--9--8--8--9--9--10-10-10-10--| x11
A|-9--9--8--8--9--9--10-10-10-10--|
E|-7--7--6--6--7--7--8--8--8--8---|

Chorus:
e|---------------------------------------------------------------------------|
B|---------------------------------------------------------------------------|
G|---------------------------------------------------------------------------|
D|-7--7--7--7--7--7--7--7--7--7--7--7--6--6--6--6--6--6--6--6--6 -7/6-6----| x1
A|-7--7--7--7--7--7--7--7--7--7--7--7--6--6--6--6--6--6--6--6--6 -7/6-6----|
E|-5--5--5--5--5--5--5--5--5--5--5--5--4--4--4--4--4--4--4--4--4 -5/4-4----|

e|---------------------------------------------------------------------------|
B|---------------------------------------------------------------------------|
G|---------------------------------------------------------------------------|
D|-7--7--7--7--7--7--7--7--7--7--7--7--6--6--6--6--6--6--6--6--6--6--6--6---| x2
A|-7--7--7--7--7--7--7--7--7--7--7--7--6--6--6--6--6--6--6--6--6--6--6--6---|
E|-5--5--5--5--5--5--5--5--5--5--5--5--4--4--4--4--4--4--4--4--4--4--4--4---|


Solo:
e|----------------------------------------------------------------------------------|
B|----------------------------------------------------------------------------------|
G|-12~--13b-12~--12~--13b-12~--10~--12b-10~--10~--12b-10~--8~--10b-8~--8~--10b-8~---|
D|----------------------------------------------------------------------------------|
A|----------------------------------------------------------------------------------|
E|----------------------------------------------------------------------------------|

e|------------------------------------------------------------------------|
B|------------------------------------------------------------------------|
G|-7~-- -/7~--7~-- -/7~--0/3/5/7/8/10/12/13/15/17b---17~---
 
~---|
D|------------------------------------------------------------------------|
A|------------------------------------------------------------------------|
E|------------------------------------------------------------------------|

Chorus:
e|---------------------------------------------------------------------------|
B|---------------------------------------------------------------------------|
G|---------------------------------------------------------------------------|
D|-7--7--7--7--7--7--7--7--7--7--7--7--6--6--6--6--6--6--6--6--6 -7/6-6----| x1
A|-7--7--7--7--7--7--7--7--7--7--7--7--6--6--6--6--6--6--6--6--6 -7/6-6----|
E|-5--5--5--5--5--5--5--5--5--5--5--5--4--4--4--4--4--4--4--4--4 -5/4-4----|

e|---------------------------------------------------------------------------|
B|---------------------------------------------------------------------------|
G|---------------------------------------------------------------------------|
D|-7--7--7--7--7--7--7--7--7--7--7--7--6--6--6--6--6--6--6--6--6--6--6--6---| x2
A|-7--7--7--7--7--7--7--7--7--7--7--7--6--6--6--6--6--6--6--6--6--6--6--6---|
E|-5--5--5--5--5--5--5--5--5--5--5--5--4--4--4--4--4--4--4--4--4--4--4--4---|

************************************

| b   Bend
| /   Slide up
|    Slide down
| ~   Vibrato

************************************

В припеве классическая "Шестёрка".
Наверх