Аккорды «Limp Bizkit»

Limp Bizkit
Группа собралась вместе в 1994 году в городе Джексонвилл, Флорида, США, когда вокалист Фред Дерст присоединился к Сэму Риверсу, Уэсу Борланду, а также кузену Риверса – Джону Отто. Позже в команду влился ди-джей Lethal. Так началась история группы Лимп Бизкит. Первый альбом под названием «Three Dollar Bill Y’All» вышел в 1997 году. Благодаря ему Лимп Бизкит появилась на показе мод MTV Spring Break’98. Второй альбом «Significant Other», выпущенный в 1999, продержался наверху топ-парада три недели. Однако… Читать полностью... Группа собралась вместе в 1994 году в городе Джексонвилл, Флорида, США, когда вокалист Фред Дерст присоединился к Сэму Риверсу, Уэсу Борланду, а также кузену Риверса – Джону Отто. Позже в команду влился ди-джей Lethal. Так началась история группы Лимп Бизкит. Первый альбом под названием «Three Dollar Bill Y’All» вышел в 1997 году. Благодаря ему Лимп Бизкит появилась на показе мод MTV Spring Break’98. Второй альбом «Significant Other», выпущенный в 1999, продержался наверху топ-парада три недели. Однако их выступление на Woodstock ‘99 вызвало неодобрение из-за вспышек массовых беспорядков, в результате чего пришлось завершить фестиваль. Споры, дискуссии всегда хороши для музыкального бизнеса, поскольку позволяют удерживать популярность артистов. Так что осуждение музыкантов не отразилось плохо на их новом альбоме. В 2000 году вышел «Chocolate Starfish and the Hot Dog Flavored Water». Альбом побил все рекорды продаж, было распространено более миллиона копий на первой же неделе после выпуска. Из-за болезни спины Фреда Дерста группе пришлось прекратить концерты по Европе, которые проходили летом 2001. С тех пор некоторые участники были заменены, а группа Лимп Бизкит выпустила еще несколько альбомов: «New Old Songs» (2001), «The Rare And The Remixes» (2002), «Results May Vary» (2003), «A Tribute To Limp Bizkit» (2004), «The Unquestionable Truth» (2005), «Greatest Hitz» (2005), «Rock Im Park» 2001 (2008), «Gold Cobra» (2011). Состав группы: Вокал: Фред Дерст Бас-гитарист: Сэм Риверс Гитарист: Уэс Борланд (бывшие гитаристы – Роб Уотерс, Майк Смит) Ударные: Джон Отто Скретчинг: DJ Lethal. Скрыть...
Популярные аккорды Limp Bizkit:
алфавиту | просмотрам | случайно
  • intro:
                               (Fill.1)
    (Gtr.1)(Acous.)
       Em             G             C                D
    E|----------------------------|-----------------------------|
    B|----------------------------|-----------------------------|
    G|----------0-2^0-------------|-----------0-2^0-------------|
    D|-2-2-2--2-------2-2-2-2-0-1-|2-2-2-2--2-------2-2-2-2-0-1-|
    A|----------------------------|-----------------------------|
    E|----------------------------|-----------------------------|…
  • Обычная настройка(standart tuning).
    Intro.
    e|--------4--------|
    B|-2-------------5-|
    G|-----------------|
    D|--------2--------|
    A|-0-------------3-|
    E|-----------------|
    
    Не знаю какие там эффекты,но на акустике только для…
  • intro
    
      bass
    D|-----32~-|-----3~2-| play 2
    A|---1-----|---1-----| times
    D|-3-------|-3-------|
    
     verse
    
     bass
    D|-----32~-|-----3~2-|
    A|---1-----|---1-----|
    D|-3-------|-3-------|
    
     chorus
    
     Gtr.
    |-2-0-3-0-2-0^3-2-3-2-|…
  • Вступление Басс:
    
    G|-------------------------|
    D|-----------------------2-|
    A|-----7-5-5-7-4-4-5-2-0---|
    E|-0-7---------------------|
    
    Ритм гитара:
    
    E|-------------------------|
    B|-------------------------|
    G|-9-6-6-6-9-6-6-6-9-6-6-9-|
    D|-------------------------|
    A|-------------------------|
    E|-------------------------|
    
    E|---------------|
    B|-9-9-10-9-9-10-|
    G|-6-6-6--6-6-6--|
    D|---------------|
    A|---------------|
    E|---------------|
    
    E|------------|
    B|------------|
    G|------------|
    D|------------|
    A|-11-9-13-14-|
    E|-9--7-11-12-|
    
    Just…
  • INTRO:
    
    e|------------------------------------------|
    B|------------------------------------------|
    G|------------------------------------------| Repeat 8X
    D|----------------4--6p4--------------------|
    A|-6--6--6--6-6-----------6--6--6--6-6--4-5-|
    E|------------------------------------------|
    
    VERSE:
    
    e|---14p11---14p11---14p11---14p11-------------------|
    B|---------11----------------------12-12-12-11-11-11-|
    G|-----------------14------13------------------------|…
  • pre-verse I fill I
    w/distortion pm - - - -
    E|-----------------------------------------------| |-----------|
    B|-----------------------------------------------| |-----------|
    G|-----------------------------------------------|…
  • Tuning:C#
    
    [Intro]
    
    B5 C5 D5 E5 C5 D5 E5
    
    Whoa
    E5 - C5 D5
    Whoa ooh 
    E5 E5 C5 D5
    [Verse]
    
    E5 G5
    Looks like I'm gonna do everything myselfMaybe I could use some help 
    But hell, you want something done right -…
  • 1-й вариант(обычная настройка-e,B,G,D,A,E. Самый сложный
    вариант, так как, чтобы хорошо звучало приходится расстягивать
    пальцы).
    
    Intro
    
    G|--------------6----4h6-----------------6-------------|
    D|---------4----------------------4----------------4h5-|
    A|-----4---------------------4-------------------------|
    E|-2---2-----2----2------2---2--------2-------2--------|
    
    2-й…
  • e|---------------------|
    B|---------------------|
    G|---------------------|
    D|---6---6---6---6-4-6-|
    A|---------4---2-------|
    E|-4---2---------------|
    
    [Scott Weiland]
    You keep your distance,
    I can't deny you.
    I got the feeling,…
  • ---------0-------|---------0-------|---------0-------|---------0-------|------
    -----------0-----|-----------3-----|-----3-----3---3-|-----3-----3---3-|------
    -------0-----0---|-------0-----0---|---2---2-----2---|---2---2-----2---|------
    -----2-----------|-----0---------0-|-0---------------|-0---------------|---2--
    ---2-----------2-|---2-------------|-----------------|-----------------|-3----
    -0---------------|-3---------------|-----------------|-----------------|------
    Intro:
    
    -----0-------|---------0-------|---------0-------|---------0-------|----------
    -3-----3---3-|-----3-----3---3-|-----0-----0---0-|-----0-----0---0-|----------
    -------------|-----------------|-----------------|-----------------|----------
    ---2-----2---|---2---2-----2---|---2---2-----2---|---2---2-----2---|----------
    -------------|-3---------------|-0---------------|-0---------------|----------
    -------------|-----------------|-----------------|-----------------|----------
    
    
    ---------0-------|---------0-------|---------0-------|---------0-------|------
    -----------0-----|-----------3-----|-----3-----3---3-|-----3-----3---3-|------
    -------0-----0---|-------0-----0---|---2---2-----2---|---2---2-----2---|------
    -----2-----------|-----0---------0-|-0---------------|-0---------------|---2--
    ---2-----------2-|---2-------------|-----------------|-----------------|-3----
    -0---------------|-3---------------|-----------------|-----------------|------
    Verse…
  • Intro,Verse 1 : Play 8x
     I just read your letter...
    E|----------------------------------------|
    B|----------------------------------------|
    G|------0---------0------4-4-4-4-777-7766-|
    D|----4---4-----4---4---------------------|
    A|----------------------------------------|
    E|-0---------0---------3------------------|
    
    Verse…
  • Intro:
    
     H(VII) (идёт такой проигрыш, не могу описать его, надо слушать)
    
    Verse:
    
    
                               H(VII)
    Well, I guess it would be nice,
                H(VII)
    If I could touch your body,
                     A(V)
    I…
  • Intro X4
    c#|--------------------------------------------------------------------|
    G#|--------------------------------------------------------------------|
    E |----------0---------0-----0-----------------------------------------|
    B…
  • Tuning (F# F# B E) low to high
    
    Intro (4x clean Tone)
    |=|------------15----------15------|
    |=|--------------------------------|
    |=|------------13----------13------|
    |=|----3--0------0--3------0---|
    ===================================================
    Add…
  • Intro:
    |-----------------------------------------------------------------|
    |-----------------------------------------------------------------|
    |-----------------------------------------------------------------|
    |-------------------------10--10----------------------------------|…
  • |----------------------------------------------------------------------|
    |----------------------------------------------------------------------|
    |(played extremly
    fast)------------------------------------------------|
    |----------------------------------------------------------------------|
    |----------------------------------------------------------------------|
    |5-4-3/2-2/3-6-----5-4-3/2-2/3-6----5-4-3/2-2/3-6----8-7-6/5-5/6-9-----|
    
    When…
  • Intro riff ( R = Rest) Clean with heavy delay effect
    Palm mute all open E's
    
    C#----------------------------------|
    G#----------------------------------|
    E-o---------------------------------|
    B-o-----9---9-----------9---6---6---|
    F#--8-7---------8-7---7-------------|
    C#--0-0---------0-0-R-0-----0---0---|
    
    1…
  • Intro Riff A
    
    E|--------------------------|--------------------------------------------------|
    B|--------------------------|--------------------------------------------------|
    G|--------------------------|--------------------------------------------------|
    D|--------------------------|-----------------------(3)-Power…
  • ВСТУПЛЕНИЕ:
    
    e|-------------------|
    B|-------------------|
    G|---4-----4---2-----|  х2 - (Вступление играется два раза)
    D|-------------------|        Затем играется на притяжении всего
    A|-2---2-----0---0---|        куплета…
  • Intro. Heavy grunge distortion.
    E|---1--1---0-1-2-1--2-----|
    A|---3--3---2-3-4-3--4-----|
    D|---3--3---2-3-4-3--4-----|
    G|-------------------------|
    B|-------------------------|
    e|-------------------------|
    
    Verse #1 Heavy…
  • Intro,Verse : Play 10x 
     pm - palm muted (глушение)
      It´s just one of those days... 
     E-----------------------------------------------------------------------------------------x
     B-----------------------------------------------------------------------------------------x…
  • INTRO:
    
    E|-----------------|-----------------|-----|-------|---|
    B|-----------------|-----------------|-----|-------|---|
    G|-----------------|-----------------|-----|-------|-9-|
    D|-----------------|-----------------|-----|-------|-7-|
    A|2----3---5--4--3-|---2----3-----5-3|-----|------5|---|
    E|0----1---3--2--1-|---0----1-----3-1|-----|-------|---|
    
    VERSE:
    hey…
  • Intro
    (Guitarra FuLL!! distorcion)
    e|-----------------|-----------------|----------------|------------|
    b|-----------------|-----------------|----------------|------------|
    g|-----------------|-----------------|----------------|------------|
    d|-----------------|-----------------|----------------|------------|
    a|-----------------|-----------------|----------------|------------|
    c#---2-2-2/0-3-0-3-|---2-2-2/0-3-0-3-|--2-2-2/0-3-0-3-|--2-2-2-0-2-|!!
    
    (Entra…
  • Tuning (low to high): C# F# B E G# C#
    
    Key:
    x - muted note
    (4) - fourth fret natural harmonic
    
    
    Intro and outro:
    C#|--------------------------------------------|
    G#|--------------------------------------------|
    E |-9-------9-------9--------------------------|
    B…
  • (DISTORTION ON) IN BEGGING SCRAPE CORDS
    E-----------------------------------------------
    B-----------------------------------------------
    G-----------------------------------------------
    D-------------------2-0-3-0-3-2---2-00-3--------
    A--2--00-3-0-20-X3--2-0-3-0-3-2---2-00-3-X2-----
    E-------------------2-0-3-0-3-2---2-00-3--------
    
    (DISTORTION…
  • Tuning C#, F#, B, E, G#, C#
    
    Intro: 1x (Clean)
    C#|---(12)-----3-2---(12)-----2-2⁄3--(12)----(12)----(12)----(12)-----|
    G#|------(12)---0-0-----(12)----0⁄0-----(12)----(12)----(12)----(12)--|
    E|---------------------------------------------------------------(12)-|
    B|--------------------------------------------------------------------|
    F#|-------------------------------------------------------------------|
    C#|--0~~~~~~~~~~~~~-0~~~~~~~~~~~~~~-0~~~~~~-0~~~~~~-0~~~~~~-0---------|
    
    Pre-Verse:…
  • Tuning: C#, G#, C#, F#, A#, D#.
    
    It's all here, you put it together. Listen to the recording for
    the exact timing. This is how I play it, so there may be some mistakes. The
    bars aren't exact measures but how I broke the…
  • Intro:
    
    Guitar 1
    
    Intro:
    E|---------------------------|---------------------------|
    B|--9----9----9--------------|--9----9----9--------------|
    G|--8----8----8--------------|--8----8----8--------------|
    D|--6----6----6--------------|--6----6----6--------------|
    A|---------------------------|---------------------------|
    E|-----4----4----4--4--4--4--|-----4----4----4--4--4--4--|…
  • INTRO:  (heavy distortion throughout song)
    
    F#           ---------------------------------------------------------
    B       ---------------------------------------------------------
    E       ---------------------------------------------------------
    G#…
  • C#------------------------------------------------|
    G#------------------------------------------------|
    E-o-----------------------------------------------|
    B-o-14---14-14-9s10-14----14----14-14----14-14----|
    F#-----7---------------10----10-------10-------9--|
    C#--12---12-12------12----12----12-12----12-12----|
    
    1…
  • Verse (with tone all the way up on bass) 
    G------------------------][---every other on verse------------- 
    D------------------------][--------------------------------------------- 
    A------------------------][---------------------------------------------…
  • INTRO (repeat this part)
    e:----------------|--3---3-3-3--|-------------|--3---3-3-3----:|
    B:----------------|--3---3-3-3--|-------------|--3---3-3-3----:|
    G:----------------|--0---0-0-0--|-----0-------|--0---0-0-0----:|
    D:----------0--2--|--2---2-2-2--|--2-----2--0-|--0---0-0-0----:|
    A:------2---------|-------------|-------------|---------------:|
    E:--3-------------|-------------|-------------|---------------:|
    (repeat…
  • Drop d tunning
    
      1 + 2 + 3 + 4 +]
    e----------------]
    b----------------]
    g----------------]
    d-0-0-7-7-5---3-3]
    a-0-0-7-7-5---3-3]
    d-0-0-7-7-5---3-3]
    
      1 + 2 + 3 + 4 +]
    e----------------]
    b----------------]
    g----------------]
    d-0-3-2---0-0----]
    a-0-3-2---0-0----]
    d-0-3-2---0-0----]…
  • Tuning:C#F#BEG#C#
    
    Note: All spaces on this tab represent sixteenth notes(except for when the notes
    are two numbers long or when special symbols used such as slides and bar bends
    etc. unless otherwise stated). Also some…
  • Verse/Intro             this leads to verse after intro
    E|------------------------|---|
    B|------------------------|---|
    G|------9-xxxx----9-8---8-|-0-|
    D|---11---xxxx-11-----9---|-9-|
    A|-9------xxxx------------|-9-|
    E|------------------------|-7-|…
  • Standard tuning, (B, E, A, D, G)
     
    You dont realy need a five string, for this song, the B string just looks
    good to have arround
     
    Intro:
    G|--------------------------------|
    D|------11~--11~-------11~---11~--|
    A|---11~-------------11~----------|
    E|-9~------9~---9~-9~------9~---9~|
    B|--------------------------------|
    Play…
  • Tuning: Drop B (B F# B E G# c#)
    
    This song sounds best if you have heavy delay throughout the whole song especially the begining.
    
    Intro - clean.  let all notes ring.
    
    C#|------------------------------------------------------------|
    G#|------------------------------------------------------------|
    E…
  • Tuning: Drop b tuning (b f# b e g# c#)
    
    
    Intro/Prechorus
    |---------------------------------------------------------------------------|
    |---------------------------------------------------------------------------|
    |---------------------------------------------------------------------------|
    |-2-2-0h2-2-0h2-2-0h2-2-3-3-3-3---------------------------------------------|
    |-2-2-0h2-2-0h2-2-0h2-2-3-3-3-3---------------------------------------------|
    |-2-2-0h2-2-0h2-2-0h2-2-3-3-3-3---------------------------------------------|
    
    Chorus
    ---------------------------------------------------------------------------|
    |---------------------------------------------------------------------------|
    |---------------------------------------------------------------------------|
    |-4-4-4-4-4-4-4-4-4-4-4-4-4-4-4-4--3-3-3-3-3-3-3-3-3-3-3-3-3-3-3-3----------|
    |-4-4-4-4-4-4-4-4-4-4-4-4-4-4-4-4--3-3-3-3-3-3-3-3-3-3-3-3-3-3-3-3----------|
    |-4-4-4-4-4-4-4-4-4-4-4-4-4-4-4-4--3-3-3-3-3-3-3-3-3-3-3-3-3-3-3-3----------|
    
    repeat…
  • C# F# B E G# C#
    
    bass intro
    
    intro
    C#|-3-2-2~~--------------3-2-2~~---------------3-2-2~~--------------3-2-2~~-|
    G#|-3-3-3~~--------------3-3-3~~---------------3-3-3~~--------------3-3-3~~-|
    E |-2-2-2~~--------------2-2-2~~---------------2-2-2~~--------------2-2-2~~-|
    B…
  • Main Riff:
    ----------------------------------------------------
    ----------------------------------------------------
    ----------------------------------------------------
    ----------------------------------------------------
    ----------------------------------------------------
    ---14-13-0-0----14-13-0-14---13-0-0----14-13-0------
    
    Verse:
    ---------------------------------
    ---------------------------------
    ---------------------------------
    --4-3------4-3---4--3-----4-3----
    --4-3------4-3---4--3-----4-3----
    --2-1-0-0--2-1-0-2--1-0-0-2-1-0--
    
    Chorus:
    ------------------------------------------------
    ------------------------------------------------
    ------------------------------------------------
    -1-------1-------1--------1/2-32---------------
    -1-------1-------1--------1/2-32---------------
    -0--x-x--0--x-x--0--x-x-------------------------
    
    Live…
  • drop d tuning
    
    intro/verse
    
    d -------------------------------
    a -------------------------------
    f--------------------------------
    c -------------------------------
    g 6-4-6-4-7-6-4-6-4-6-4-4-7-6-4-6
    d -------------------------------
    
    chorus(heavy…
  • C# F# B E G# C#
    
    Intro:
    “Life in the fast lane”
    
    Riff A:
    
    e-----------------------------------------------------------------
    b-------14----17--14-17-----------14----17--14-17-15--------------
    g-----------------------------------------------------------------
    d----16----16------------------16----16---------------------------
    a-----------------------------------------------------------------
    e-14------------------------14------------------------------------
    
    Verses:…
  • Note:  Tuning is C#,F#,B,E,G#,C# 
    
    Play through intro,verse and chorus but not the break
    -|--------------------------|----------------------------|--------------------
    -|--------------------------|----------------------------|--------------------
    -|--15--13--11--10--11--13--|--13--11--10--8--10--8--11--|--------------------
    -|--------------------------|----------------------------|--------------------
    -|--------------------------|----------------------------|--------------------
    -|--------------------------|----------------------------|--------------------…
  • Intro - Distortion - Flanger 
     c#---10-10-10-10-10-10-10-10-10-10-10-10-10-10-10-10-10-10-10-- 
     c#---10-10-10-10-10-10-10-10-10-10-10-10-10-10-10-10-10-10-10-- 
     g#---12-12-12-12-12-12-12-12-12-12-12-12-12-12-12-12-12-12-12--…
  • Tuning: Drop B (B F# B E G# C#)
    
    
    
    Intro: w/heavy dist
    C#|--------------------------------||
    G#|--------------------------------||
    E|--------------------------11-11-||
    B|--------------------------x--x--||
    F#|-0-3--6-5-3--3h5--3-0-----9--9--||
    B|-0-3--6-5-3--3h5--3-0--0--0--0--||
    
    
    Verse:…
  • Intro:
    
       d#|------------------------------|
       A#|------------------------------|
       F#|------------------------------| 
       C#|------------------------------| X 3
       G#|------------------------------|
       C#|-0-0-0-0-0-0----0---0-0--0-0--|…
  • Tuning: B F# B E G# C# (drop B)
    
    Intro + Verse (0:00-0:47)
    clean with delay 
    |-------------------------------------------------------------------------|
    |-------------------------------------------------------------------------|
    |--------7-------7-------7-------7-------7--------------------------------|
    |------7---7---7---7---7---7---7---7---7---7------------------------------|
    |----5-------5-------5-------5-------5-------5----------------------------|
    |-------------------------------------------------------------------------|…
  • Standard Tunning for a 5 string bass (BEADG)
    
    Verse
    G ----------------------------------
    D ----------------------------------
    A ------7----------7----------------  repeat as many times as needed
    E ---------8-----------8--7--5------
    B…
  • Tuning: 1 1/2 step down
    
    
    |------------------------------------------------|
    |------------------------------------------------|
    |------------------------------------------------|
    |------------------------------------------------|
    |-------9-8---8-8--9-8--8-8---2--(2)-------------|
    |-------7-6---6-6--7-6--6-6---0--(0)-------------|…
  • Intro: w/dist X4
    C#|------------------------------------|
    G#|------------------------------------|
    E |------------------------------------|
    B |------------------------------------|
    F#|--5/6h0-----------------------------|
    B…
  • C#|--------------------------------------------------|
    G#|--------------------------------------------------|
    E-|-----4--------------------------4-----------------|
    B-|-6-------4----3---------6---------------4-------3-|
    F#|--------------------------------------------------|
    C#|--------------------------------------------------|…
  • Drop E to C#   (C#, A, D, G)
    
    First Riff:
    
    G||---------------||
    D||---------------||
    A||---------------|| 
    E||-0-0-00-0-0----|| x8
    
    Chorus:
    
    G||-----4/3---6-------------||
    D||---6-----4------6--------||
    A||-4------------4----------||…
  • inst_type=Guitar
    body=The main riff is simple it is basically
    E----------------------
    B----------------------
    G----------------------
    D----------------------
    A----------------------
    e--5--8--12-12--12-8--5
    
    
  • c#||---------------------------------------------------------------------|
    g#||----------------------------------------------------------------t12--|
    e#||------------t11-----------------------------t11------------------x---|
    b#||---------h4-----------------h4-----------h4------------------h4--x---|
    F#||---------------------------------------------------------------------|
    C#||-t12p0h2--------t12p2-t12p2------t12p0h2---------t12p2-t12p2---------|
    
    c#||---------------------------------------------------------------------|
    g#||---------------------------------------------------------------------|
    e#||------------t11-----------------------------t11------------------x---|
    b#||---------h4-----------------h4-----------h4------------------h4-t11--|
    F#||-----------------------------------------------------------------x---|
    C#||-t12p0h2--------t12p2-t12p2------t12p0h2---------t12p2-t12p2---------|…
  • Tuning for 4 string:
    F# F# B E
    
    
    Intro:
    
    e-15----14---14------14------15-15---14---14-----14---------------
    b-----------------------------------------------------------------
    f-13----12---12--0---12--0---13-13---12---12-0---12--10-----------
    f----------------0-------0-------------------0-------10-----------
    
    Riff…
  • Tuning: C#-F#-B-E-G#-C#
    
    
      Intro: w/heavy dist.
     |------------------------------------------------|
     |------------------------------------------------|x2
     |------------------------------------------------|
     |-7-7---------------------5----------------------|…
  • ---------------------------------------------------------------
    ---------------------------------------------------------------                          repeat:7 times
    ---------------------------------------------------------------
    ---------------------------------------------------------------
    ---2-2-2-2-2--1--2-2-2-2-2-------------------------------
    ---0-0-0-0-0--3--0-0-0-0-0-------------------------------
    
    
    
    ---------------------------------------------------------------
    ---------------------------------------------------------------
    ---------------------------------------------------------------
    ---------------------------------------------------------------
    ---2-2-2-2-2--3-hold…
  • E--------------------------------------------------
    B--------------------------------------------------  intro i think
    played 2x
    G--------------------------------------------------     
    D--------------------------------------------------…
  • Tuning: Drop C# (C#,G#,E,B,F#,c#)
    
    Verse: x6
    |--------------------------------------------------|
    |--------------------------------------------------|
    |-----2----2---2---2--2-2-2-----2----2------2----2-|
    |-0------0---0-------------------------------------|
    |---------------------------3------3----3------3---|
    |---------------------------3------3----3------3---|
    
    Chorus:(I'm…
  • Intro (2x)
    1---------------------------------------------------------------------------------------------------
    2----------10-----10---10---10---10----10----------10----10---10---10---10---10---------9---9-------
    3------10-----10-------------------------------------9-----9----------------------------------9---9-
    4—0----------------------------------------------0-----------------------------------------0--------
    5---------------------------------------------------------------------------------------------------
    6---------------------------------------------------------------------------------------------------
    
    1----------------------------------------------------------
    2---9---9---9---9---9-------10---10---10---10---10---10*---
    3---------------------------9-----9------------------------
    4------------------------0---------------------------------
    5----------------------------------------------------------
    6----------------------------------------------------------
    
    
    Verse…
  • Use this hand positioning
    -14-
    -15-
    -16-
    -16-
    
    The intro goes like this X 2
    ------------------14--14--14--14---|
    ------------------15--15--15--15---|
    -16--16--16-16-16---16--16--16--16-|
    -16--16--16-16-16---16--16--16--16-|
    -----------------------------------|
    -----------------------------------|
    
    The…
  • e|--------------------------------------------------------|
    b|--------------------------------------------------------|
    g|-------10------------------7----7/9h-10-----------------|
    d|----10----------10-------7------------------------------|
    a|--8----------10--------5--------------------------------|
    e|-----------8--------------------------------------------|
    
    Repeat…
  • Riff 1: (x8)
    G:--------------|
    D:--------------|
    A:--------------|
    E:-2-2-2-0-3--0-|
    
    Riff 2: (x16)
    G:-----------------|
    D:-----------------|
    A:-----------------|
    E:-2-2-2-0-3-3-0-0-|
    
    Riff 2: (x8)
    G:-------------|
    D:-------------|
    A:-------------|
    E:-R--2-0-3--0-|
    
    End:
    G:------------|
    D:------------|
    A:------------|
    E:-2--R--R--R-|…
  • Em       Em               G             
    Down in a hole there are so many ways
     A                       Em
    To find yourself some light  
    
     Em             G
    It' always the miracles
        A                  Em  
    Keep…
  • How many you people remember the House of Pain?...
    G||------------------------------------------------|| 
    D||------------------------------------------------|| 
    A||------------------------------------------------|| 
    E||-12*--12-12/7-7-10-11-12*--12-12/7-7-10-11------||…
Наверх