Аккорды Linkin Park - Breaking the Habit

Добавлено: @romashka
Дата добавления: 30 Января 2020г.
Рейтинг:
0.0
Просмотров: 7
Транспонировать - +
Intro: Em Em7 Cmaj7 C Bsus Bm11 }x2

Verse 1:
Em *   D       Em                      Em *
  Memories consume, like opening the wound, 
       D           Em
  I'm picking me apart again
Em *   D      Em                       Em *
  You all assume, I'm safe here in my room, 
       D             Em
  Unless I try to start again

Pre-Chorus:
Am                              C/G
 I don't want to be the one the battles always choose
       Am                     C/G
 'Cause inside, I realize that I'm the one confused

Chorus:
  Em                    Cmaj7             Bsus
I don't know what's worth fighting for or why I have to scream
  Em             Cmaj7          Bsus
I don't know why I instigate and say what I don't mean
  Em             Cmaj7             Bsus
I don't know how I got this way, I know it's not alright
         C/G          D          C/G          D      Em
So, I'm breaking the habit, I'm breaking the habit tonight

Verse 2:
Em*    D       Em                       Em * 
  Clutching my cure, I tightly lock the door,
        D               Em
  I try to catch my breath again
Em *  D        Em                 Em * 
  I hurt much more than anytime before, 
     D             Em
  I had no options left again

Pre-Chorus:
Am                              C/G
 I don't want to be the one the battles always choose
       Am                     C/G
 'Cause inside, I realize that I'm the one confused

Chorus:
  Em                    Cmaj7             Bsus
I don't know what's worth fighting for or why I have to scream
  Em             Cmaj7          Bsus
I don't know why I instigate and say what I don't mean
  Em             Cmaj7               Bsus
I don't know how I got this way, I'll never be alright
         C/G          D          C/G          D      Em
So, I'm breaking the habit, I'm breaking the habit tonight

Bridge:
                      D/F#      G                     Asus2
 I'll paint it on the walls,     'cause I'm the one at fault
Em                 D/F#       G                  Asus2
 I'll never fight again        and this is how it ends

Chorus:
  Em                    Cmaj7             Bsus
I don't know what's worth fighting for or why I have to scream
    Em             Cmaj7       Bsus
But now I have some clarity to show you what I mean
  Em             Cmaj7               Bsus
I don't know how I got this way, I'll never be alright
        C/G           D          C/G          D   
So, I'm breaking the habit, I'm breaking the habit, 
       C/G          D      Em
I'm breaking the habit tonight

e||0---5---3---2---|0---5---3---2---|0---5---3---2---|0---5---3---2-----||
B||----------------|----------------|----------------|------------------||
G||----------------|----------------|----------------|------------------||
D||----------------|----------------|----------------|------------------||
A||----------------|----------------|----------------|------------------||
E||0---------------|----------------|----------------|------------------||

e||0---5---3---2---|0---5---3---2---|0-------3---2---|0---5---3---2-----||
B||----------------|----------------|----4-----------|-------------0----||
G||----------------|----------------|----------------|--------------0---||
D||----------------|----------------|----------------|---------------0--||
A||----------------|----------------|----------------|----------------0-||
E||----------------|----------------|----------------|-----------------0||

Em *
e||---x---||
B||---8---||
G||---9---||
D||---9---||
A||---7---||
E||---x---||
comments powered by Disqus
Наверх