Аккорды Lisa Miskovsky - Still Alive

Добавлено: @romashka
Дата добавления: 28 Августа 2021г.
Рейтинг:
0.0
Просмотров: 66
Транспонировать - +
Intro and Interlude 3 part 1 (piano):
eb|-12-----12---10------|-------------------|-10-----10----------|------------------|
B |------------------12-|------12---10------|-------------8------|------------------|
G |---------------------|-------------------|-----------------11-|-------11---9-----|
D |---------------------|-------------------|--------------------|------------------|
A |---------------------|-------------------|--------------------|------------------|
E |---------------------|-------------------|--------------------|------------------|
    1  + 2 +  3 +  4 +    1 + 2 +  3 +  4 +   1  + 2 +  3 + 4 +    1 + 2 +  3 + 4 +
    Em                    C                   D 


Bridge part 1 (piano):
                                                   s
eb|-12-----12---10------|-------------------|-10---10-10----------|------------------|
B |------------------12-|------12---10------|--------------8------|------------------|
G |---------------------|-------------------|------------------11-|-------11---9-----|
D |---------------------|-------------------|---------------------|------------------|
A |---------------------|-------------------|---------------------|------------------|
E |---------------------|-------------------|---------------------|------------------|
    1  + 2 +  3 +  4 +    1 + 2 +  3 +  4 +   1  + 2  +  3 + 4 +    1 + 2 +  3 + 4 +
    C                     D6                  Em                    D6 

All other interlude (piano, can double an octave down):
         s                                          s
eb|-24---24-24---22------|-------------------|-22---22-22-----------|-------------------|
B |-------------------24-|------24---22------|--------------20------|-------------------|
G |----------------------|-------------------|-------------------23-|-------23---21-----|
D |----------------------|-------------------|----------------------|-------------------|
A |----------------------|-------------------|----------------------|-------------------|
E |----------------------|-------------------|----------------------|-------------------|
    1  + 2  +  3 +  4 +    1 + 2 +  3 +  4 +   1  + 2  +  3 +  4 +    1 + 2 +  3 +  4 +
    Em                    C                    D                      Bm 

INТRО
Em   C   D  Cadd9  C   G   D  Em/B   (fade in) 
ooh


VERSE 1
Csus2                C 
      I have changed,  I have changed
Em                  D6 
      Just like you,   just like you
Csus2              C 
      For how long?  For how long
Em                       D6 
      must I wait? I know   there's something wrong:


PRE-СНОRUS 1
C                                    Em/B  
   Your concrete heart isn't beating,
Em                    D 
   and you've tried to make it come alive
C 
   No shadows, just red lights
Em                    D          Bm/D  
   Now I'm here to res - cue you,      oh oh...

INTERLUDE 1
Em  C  D  Bm 
Оон,

СНОRUS
C                  G 
   I'm still alive,  I'm still alive
D                     C          Em   C   D   Bm  
   I cannot apologize,  no oh oh                ooh,
C                  G 
   I'm still alive,  I'm still alive
D                     C 
   I cannot apologize,  no oh oh

VERSE 2
Csus2           C 
      So silent,  no violence
Em                       D6 
      but inside my head,   so loud and clear
Csus2                  C 
      you're screaming,  you're screaming,
Em                           D6 
      covered up with a smile   I've learned to fear

PRE-СНОRUS 2
C 
   Just sunshine and blue sky;
Em                   D 
   is this all we get  for living here?
C 
   Come fire, come fire
Em                     D         Bm/D  
   Let it burn and love  come rac   -   ing through

INTERLUDE 2
Em   C   D   Bm  
                  Оон,

СНОRUS
C                  G 
   I'm still alive,  I'm still alive
D                     C          Em   C   D   Bm  
   I cannot apologize,  no oh oh                ooh,
C                  G 
   I'm still alive,  I'm still alive
D                     C 
   I cannot apologize,  no oh oh

BRIDGE
C                       D6 
   I've learned to lose,   I've learned to win,
Em                    D6 
   I've turned my face   against the wind
C                   D6 
   I will move fast,   I will move slow
Em 
   take me where I have to go...

INTERLUDE 3
Em  C  D  Cadd9  C  G  D  Bm  (fade in) 

Em   C7              D   Bm  
Оон, (I'm still alive)      Оон,

FINAL СНОRUS 1
C                  G 
   I'm still alive,  I'm still alive
D                     C          Em   C   D   Bm  
   I cannot apologize,  no oh oh                ooh,
C                  G 
   I'm still alive,  I'm still alive
D                     C          Em   C   D   Bm  
   I cannot apologize,  no oh oh                ooh,

FINAL СНОRUS 2
C                  G 
   I'm still alive,  I'm still alive
D                     C          Em   C   D   Bm  
   I cannot apologize,  no oh oh               ooh,
C                  G 
   I'm still alive,  I'm still alive
D                     C          Em   C   D   Bm  
   I cannot apologize,  no oh oh

ОUТRО
C   G   D   D  C   Em   C   D   Bm  
C   G   D   D  C   G 

D6  = x x x 11 12 10
      pads play D  F# A 
      solo guitar/vocals, try:
      xx0202
ОRDЕR: I V1 PC1 INT1 C# V2 PC2 INT2 C# B# INT3 FC1 FC2 О
Наверх