Аккорды LIZER - Молодым

Добавлено: @romashka
Дата добавления: 20 Сентября 2020г.
Рейтинг:
0.0
Просмотров: 26
Транспонировать - +
(Capo 4)
Intro:
e------2----------2---------2-----------2----------2---------2-------|
B-----3-----3---------3---------3------2-----2---------2---------2---|
G----4---------4---------4------------2---------2---------2----------|
D------------------------------------0-------------------------------|
A---2----------------------------------------------------------------|
E--------------------------------------------------------------------|
    Bm                              Dmaj7

e------2----------2---------2-----------0----------0-----------------|
B-----0-----0---------0---------0------------0---------0------3-2-0--|
G----0---------0---------0----------------------0---------0----------|
D--------------------------------------------------------------------|
A--------------------------------------------------------------------|
E---0-----------------------------------0----------------------------|
    Em                                  Em

Chorus:

 Bm 
Никто нас не услышит, и никто нам не поможет
 D 
Я дурак, если считаю, что другим не всё равно.
 Em
Мы с тобою так похожи, мы гуляем по протоптанной дороге
 Em
Из утробы – прямо в деревянный гроб
 Bm 
Запомни меня молодым
 D 
Молодым и беспечным
 Em
Пока вы верите людям в ящиках я вижу себя настоящего...

Verse 1:

 Bm 
Я бы улыбнулся, но нет повода
 D 
Вроде не зима, но почему мне холодно?
 Em
Повиси ещё немного на другом конце провода,
 Em
Так одиноко щас
 Bm              D 
Пустота моих комнат такая же
 Em
Как пустота в моей, в моей душе
 Bm 
Я подкуриваю сигу стоя на балконе молча
 D 
Я молчу, а внутри меня всё разрывает в клочья
 Em
Я хочу кричать, но не вижу даже в этом смысла
 Em
Как тут не стать самоубийцей?
 Bm 
Я кричу в глазах, но никто не слышит
 D 
Мы одинокие герои старых и забытых книжек
 Em
Кто-то говорит по телевизору в программе
 Em
Я так давно не звонил маме

Chorus:

 Bm 
Никто нас не услышит и никто нам не поможет
 D 
Я дурак, если считаю, что другим не всё равно
 Em
Мы с тобою так похожи, мы гуляем по протоптанной дороге
 Em
Из утробы прямо в деревянный гроб
 Bm 
Запомни меня молодым
 D 
Молодым и беспечным
 Em
Пока вы верите людям в ящиках
 Em
Я вижу себя настоящего

Verse 2:

 Bm 
Ветер
 D                  Em
Унеси мои мысли отсюда
                       Bm
Замети моё прошлое, вьюга
 D                     Em
И оставь меня здесь одного
 Bm 
Мы строим свои космосы в коробках
 D                     
И не пускаем остальных в свои сердца
 Em
Мы говорим "люблю", но держим это в скобках
 Em
И когда больно, сами же валяемся в слезах
 Bm
Мы принимаем доброту за слабость
 D 
И издеваемся над теми, кто слабей
 Em
Мы живём Вконтактах, Инстаграмах
 Em
Может быть поэтому я не люблю людей


e------2----------2---------2-----------2----------2---------2-------|
B-----3-----3---------3---------3------2-----2---------2---------2---|
G----4---------4---------4------------2---------2---------2----------|
D------------------------------------0-------------------------------|
A---2----------------------------------------------------------------|
E--------------------------------------------------------------------|
    Bm                              Dmaj7

e------2----------2---------2-----------0----------0-----------------|
B-----0-----0---------0---------0------------0---------0------3-2-0--|
G----0---------0---------0----------------------0---------0----------|
D--------------------------------------------------------------------|
A--------------------------------------------------------------------|
E---0-----------------------------------0----------------------------|
    Em                                  Em

Chorus:

Bm 
Никто нас не услышит и никто нам не поможет
D 
Я дурак, если считаю, что другим не всё равно
Em
Мы с тобою так похожи, мы гуляем по протоптанной дороге
Em
Из утробы прямо в деревянный гроб
Bm 
Запомни меня молодым
D 
Молодым и беспечным
Em
Пока вы верите людям в ящиках
Em
Я вижу себя настоящего

Бой: ↓↑X↑↑↑↓↑↓
Оригинальные аккорды: D#m F# G#m 
Capo на 4-м ладу.
Наверх