Аккорды Lo-Fi Le-Vi - Sweater

Добавлено: @romashka
Дата добавления: 24 Ноября 2019г.
Рейтинг:
0.0
Просмотров: 16
Транспонировать - +
Intro:
Dm7 | E7b9 | A#m7 | Cm7 | C7 
           e--8--7------------
           B--8-----10---8----
           G--9---------------
           D--7---------------
           A------------------
           E------------------

Dm7 | E7b9 | A#m7 
           e|--8--
           B|--8--
           G|--9--
           D|--7--
           A|-----
           E|-----

1 verse:
Dm7
My eyebrow is growing back 
E7b9
Nikes turning black 
A#m7
The more i see the more they teach

e--8---------------7----------------
B--8--------------------------------
G--9--------------------------------
D--7--------------------------------

Cm7          C7 
Morrissey is on repeat 
e-----------------------------------
B-10---------8----------------------
G-----------------------------------
D-----------------------------------

Dm7     E7b9  
Ya     mmmmm

    A#m7                           Cm7             C7 
The less you look into my eyes the more i start to realise that 
e----8--------------7------------------------------------------
B----8------------------------------10--------------8----------
G----9---------------------------------------------------------
D----7---------------------------------------------------------

Chorus:
Dm7      E7b9         A#m7  Cm7  C7 
     She is not
                   e--8--7------------
                   B--8-----10---8----
                   G--9---------------
                   D--7---------------

2 verse:
Dm7  
She's not worth the wait 
E7b9 
She's not worth being sad 

       A#m7       Am7          Gm7       C7
Made a promise to kiss me when the season ends 
      e--8---------7------------6----------3--
      B--8---------7------------6----------5--
      G--9---------8------------7----------3--
      D--7---------6------------5----------5--

        Dm7
Couldnt keep it... 
       e|-5--------
       B|-6--------
       G|-5--------
       D|-7--------
       A|----------
       E|----------

3 verse:
Dm7  
My eyebrow is growing back 
E7b9 
Nikes turning black 
A#m7  Am7      Gm7       C7
My girl was never really mine 
        Dm7
She couldve been my valentine  Ya mmmm

Dm7  
The next time that you call my phone 
E7b9 
Leave a message at the tone 

          A#m7            Am7 
About the sweater you can have 
               G#m7           C7
It just think of me when you wear it

e--8---------------7------------------6--------------3-----
B--8---------------7------------------6--------------5-----
G--9---------------8------------------7--------------3-----
D--7---------------6------------------5--------------5-----

Outro: (With Drums)
Dm7 | E7b9 | A#m7 | Cm7 | C7     (x3)
           e--8--7------------
           B--8-----10---8----
           G--9---------------
           D--7---------------
           A------------------
           E------------------
comments powered by Disqus
Наверх