Аккорды Lost Frequencies - Are You With Me

Добавлено: @romashka
Дата добавления: 10 Августа 2021г.
Рейтинг:
0.0
Просмотров: 35
Транспонировать - +
Guitar 1
e|---------------------------------------|
B|--9-9-9-9--/6-6-6-6--/1-1-1-1--8-8-8-8-|
G|---------------------------------------|
D|---------------------------------------|
A|---------------------------------------|
E|---------------------------------------|

Guitar 2
e|-----------------------------------------------------------------|
B|-9---9---9---9---6---6---6---6-------------------8---8---8---8---|
G|---------------------------------5---5---5---5-------------------|
D|-----------------------------------------------------------------|
A|---8---8---8---8---4---4---4---4-------------------6---6---6---6-|
E|-----------------------------------4---4---4---4-----------------|

e|---------------------4------------11---------------|
B|-9-------------6-6-6-----13-13-13-------8-8-8------|
G|---10----10-10---------6-------------13----------8-|
D|------10--------------------------------------10---|
A|---------------------------------------------------|
E|---------------------------------------------------|

e|-------------------------8-8-8-----------|
B|-------------9-------9-----------9-8-8-8-|
G|-10-10-10-10---6-6-6---6-------8---------|
D|-----------------------------------------|
A|-----------------------------------------|
E|-----------------------------------------|

Guitar 3
e|----------------------------------------------------------------|
B|--9-------9-------9-------9-----------6------6------6------6----|
G|-10------10------10------10-----------6------6------6------6----|
D|-----10------10------10------10----------6------6------6------6-|
A|--8-------8-------8-------8-----------4------4------4------4----|
E|----------------------------------------------------------------|

E|-------------------------------------------------------------|
B|-----------------------------------8------8------8------8----|
G|--5------5------5------5-----------8------8------8------8----|
D|--6------6------6------6--------------8------8------8------8-|
A|-----6------6------6------6--------6------6------6------6----|
E|--4------4------4------4-------------------------------------|
Наверх