Аккорды Low Roar - Breathe In

Добавлено: @romashka
Дата добавления: 03 Августа 2018г.
Рейтинг:
0.0
Просмотров: 42
Транспонировать - +
Pattern A
e|---0-----------------------2-----------------------3------------|
B|----------------------------------------------------------------|
G|----------------------------------------------------------------|
D|---------------0-----------------------0-----------------------0|
A|---3-------3-------3-------3-------3-------3-------3-------3----|
E|----------------------------------------------------------------|
     1   +   2   +   3   +   4   +   5   +   6   +   7   +   8   +
e|----------------------------------------------------------------|
B|---0-----------------------3-----------------------0------------|
G|----------------------------------------------------------------|
D|---------------0-----------------------0-----------------------0|
A|----------------------------------------------------------------|
E|---3-------3-------3-------3-------3-------3-------3-------3----|

e|----------------------------------------------------------------|
B|----------------------------------------------------------------|
G|---------------------------7------------------------------------|
D|---4-----------5-----------------------5-----------4------------|
A|---5-------5-------5-------5-------5-------5-------5-------5----|
E|----------------------------------------------------------------|

e|----------------------------------------------------------------|
B|----------------------------------------------------------------|
G|---------------------------7------------------------------------|
D|---4-----------5-----------------------5-----------4------------|
A|---5-------5-------5-------5-------5-------5-------5-------5----|
E|----------------------------------------------------------------|



Pattern B
e|----------------------------------------------------------------|
B|----------------------------------------------------------------|
G|---2-----------------------2-----------------------2------------|
D|---------------0-----------------------0-----------------------0|
A|---5-------5-------5-------5-------5-------5-------5-------5----|
E|----------------------------------------------------------------|

e|----------------------------------------------------------------|
B|----------------------------------------------------------------|
G|---2/5---------------------5-----------------------5------------|
D|---------------0-----------------------0-----------------------0|
A|---5-------5-------5-------5-------5-------5-------5-------5----|
E|----------------------------------------------------------------|

e|----------------------------------------------------------------|
B|----------------------------------------------------------------|
G|---5/4---------------------4-----------------------4------------|
D|---------------0-----------------------0-----------------------0|
A|---5-------5-------5-------5-------5-------5-------5-------5----|
E|----------------------------------------------------------------|

e|----------------------------------------------------------------|
B|----------------------------------------------------------------|
G|---------------------------7------------------------------------|
D|---4-----------5-----------------------5-----------4------------|
A|---5-------5-------5-------5-------5-------5-------5-------5----|
E|----------------------------------------------------------------|

e|----------------------------------------------------------------|
B|----------------------------------------------------------------|
G|---------------------------7------------------------------------|
D|---4-----------5-----------------------5-----------4------------|
A|---5-------5-------5-------5-------5-------5-------5-------5----|
E|----------------------------------------------------------------|



Pattern C
e|----------------------------------------------------------------|
B|---6-----------------------6-----------------------6------------|
G|----------------------------------------------------------------|
D|---------------0-----------------------0-----------------------0|
A|---5-------5-------5-------5-------5-------5-------5-------5----|
E|----------------------------------------------------------------|

e|----------------------------------------------------------------|
B|---6/5---------------------5-----------------------5------------|
G|----------------------------------------------------------------|
D|---------------0-----------------------0-----------------------0|
A|---5-------5-------5-------5-------5-------5-------5-------5----|
E|----------------------------------------------------------------|

e|----------------------------------------------------------------|
B|----------------------------------------------------------------|
G|---4-----------------------5-----------------------4------------|
D|---------------0-----------------------0-----------------------0|
A|---5-------5-------5-------5-------5-------5-------5-------5----|
E|----------------------------------------------------------------|

e|----------------------------------------------------------------|
B|----------------------------------------------------------------|
G|---------------------------7------------------------------------|
D|---4-----------5-----------------------5-----------4------------|
A|---5-------5-------5-------5-------5-------5-------5-------5----|
E|----------------------------------------------------------------|

e|----------------------------------------------------------------|
B|----------------------------------------------------------------|
G|---------------------------7------------------------------------|
D|---4-----------5-----------------------5-----------4------------|
A|---5-------5-------5-------5-------5-------5-------5-------5----|
E|----------------------------------------------------------------|



Pattern D
e|----------------------------------------------------------------|
B|----------------------------------------------------------------|
G|---5-----------------------5-----------------------5------------|
D|---------------0-----------------------0-----------------------0|
A|---5-------5-------5-------5-------5-------5-------5-------5----|
E|----------------------------------------------------------------|

e|----------------------------------------------------------------|
B|----------------------------------------------------------------|
G|---4-----------------------4-----------------------4------------|
D|---------------0-----------------------0-----------------------0|
A|---5-------5-------5-------5-------5-------5-------5-------5----|
E|----------------------------------------------------------------|

e|----------------------------------------------------------------|
B|----------------------------------------------------------------|
G|---------------------------7------------------------------------|
D|---4-----------5-----------------------5-----------4------------|
A|---5-------5-------5-------5-------5-------5-------5-------5----|
E|----------------------------------------------------------------|

e|----------------------------------------------------------------|
B|----------------------------------------------------------------|
G|---------------------------7------------------------------------|
D|---4-----------5-----------------------5-----------4------------|
A|---5-------5-------5-------5-------5-------5-------5-------5----|
E|----------------------------------------------------------------|


Song order when guitar plays:
A B C B C D D A A C C C C
comments powered by Disqus
Наверх