Аккорды Low Roar - Patience

Добавлено: @romashka
Дата добавления: 03 Августа 2018г.
Рейтинг:
0.0
Просмотров: 14
Транспонировать - +
Tune: Drop D

Verse:

E -----------------------------------------------------------------|
B -----------------------------------------------------------------|
G -------2-------2-------2------2/4------4-------4-------4-------4-|
D ---4-------4-------4-------4-------0-------0-------0-------0-----|
A ---------------------------------5---5---5---5---5---5---5---5---|
D -4---4---4---4---4---4---4---4-----------------------------------|


E -----------------------------------------------------------------|
B -----------------------------------------------------------------|
G -------0-------0-------0-------0---------------------------------|
D ---2-------2-------2-------2-----------4-------4-------4-------4-|
A -----------------------------------0-------0-------0-------0-----|
D -2---2---2---2---2---2---2---2---0---0---0---0---0---0---0---0---|


Chorus:

E -----------------------------------------------------------------|
B -----------------------------------------------------------------|
G -------6-------6-------6-------6-------4-------4-------4-------4-|
D ---7-------7-------7-------7-------5-------5-------5-------5-----|
A ---------------------------------5---5---5---5---5---5---5---5---|
D -7---7---7---7---7---7---7---7-----------------------------------|


Lyrics:

I'm sick of losing
my patience
out of time
lacking rhythm
barely concious
over sensitive
feeling weaker
as I stumble around

Get out of my mind

In the morning
rests the paper
heavy snow fall
wakes the neighbors
the alarm calls
I clean out my eyes
feeling nauseous
as the world spins around

Get out of my mind
comments powered by Disqus
Наверх