Аккорды «Madball»

Madball
Группа «Madball» связана самыми что ни на есть ближайшими родственными узами с отцами NYHC «Agnostic Front». Обе группы по праву считаются королями нью-йоркской хардкор сцены, поскольку их история начиналась как одна история Агностик Фронта. В 1982 году, когда в Нью-Йорке была создана прямолинейная и радикальная группа «Agnostic Front», младшему сводному брату вокалиста банды Фредди Крициену исполнилось всего 6 лет. Он жил во Флориде, правда, не в самом лучшем квартале, но совершенно не думал… Читать полностью... Группа «Madball» связана самыми что ни на есть ближайшими родственными узами с отцами NYHC «Agnostic Front». Обе группы по праву считаются королями нью-йоркской хардкор сцены, поскольку их история начиналась как одна история Агностик Фронта. В 1982 году, когда в Нью-Йорке была создана прямолинейная и радикальная группа «Agnostic Front», младшему сводному брату вокалиста банды Фредди Крициену исполнилось всего 6 лет. Он жил во Флориде, правда, не в самом лучшем квартале, но совершенно не думал о том, что всего лишь через год его безмятежной детской жизни придет конец. Роджер Майрет решил взять под опеку малолетнего брательника и вытащил его в Нью-Йорк, чтобы пацан ездил с «AF» в туры, дружил со взрослыми дядями, набирался жизненного опыта и познавал рокенролльный драйв. И с такого возраста малыш Фредди постоянно жил в гастрольном автобусе, колеся с музыкантами по стране и даже почти не бывая в Нью-Йорке. Во время этих поездок он и получил кликуху Madball. После выхода отличной «Фронтовской» пластинки "Liberty And Justice», у Майрета начались проблемы с наркотиками. Из-за своего пагубного пристрастия в 1989-м он на полтора года загремел за решетку. Пока Роджер отдыхал на нарах, у лидера «Агностиков» Винни Стигма с оставшимися музыкантами появилась идея организовать side-проект – «Madball», где, естественно, вокалистом стал Фредди Крициен, который уже пробовал выступать на концертах. Ему тогда исполнилось 12. Первый концерт "Madball" состоялся в 1988 году, а в 1989 появился дебютный сингл команды "Ball of Destruction", в который вошли старые перепетые песни «Агностик фронта», кавера и ранее неизданные трэки. В 1992 г. «Agnostic Front» окончательно закончил свое вялое существование. Роджер Майрет посвятил себя ремонту мотоциклов, а другие участники группы - Мэтт Хендерсон (Matt Hendreson), Уилл Шеплер (Will Shepler), Винни Стигма (Vinnie Stigma) и Фредди Крициен (Freddie Cricien) решили продолжить карьеру в «Madball». Позднее к ним присоединился басист Hoya. И в таком составе они выпустили "The Droppin` Many Suckas" - второй EP, записанный на NY лейбле Wreck-Age Rec. Несмотря на первоначальную схожесть Madball и Agnostic Front, новая хардкор-формация быстро доказала всем уникальность и оригинальность своей музыки. Фредди с детства мечтал быть как брат и даже не подозревал, что его группа станет гораздо успешнее и популярнее. В начале 1994 года команда подписала контракт с лейблом Roadrunner Rec и, наконец, записала свой полноценный первый альбом "Set It Off" - горючую смесь хардкора, панка и металла, перемешенную с рассуждениями Cricien`a по поводу окружающего мира. Брутальная бескомпромиссность текстов нашла отклик у тысяч поклонников. После захватывающего мирового турне в поддержку дебютного альбома, "Madball" засели за следующую пластинку - "Demonstrating My Style", которая увидела свет в 1996 году. Сами музыканты считали именно этот альбом своим настоящим дебютом - он был составлен из абсолютно нового материала, тогда как в "Set It Off» входили в основном перезаписанные версии старых композиций. "Demonstrating My Style" был посвящен проблемам улиц больших городов. Безжалостная, холодная и жестокая лирика о жизни среди наркотиков, преступности, безработицы и насилия, которые стали составными частями нью-йоркского района Lower East Side. "Этот альбом прямо рассказывает, что творится на улицах Нью-Йорка" - говорил Cricien в одном из интервью - "Ведь мы все оттуда. Ты можешь средь бела дня получить пулю в лоб". Триумфальным завершением гастролей в поддержку альбома стало выступление на закрытии голландского фестиваля Dynamo Open Air . "Madball" превратили толпу более чем в 130 тыс. человек в жуткую мясорубку из слэма! Третья пластинка «Look My Way» 1998 года продолжила стратегию, выбранную коллективом. Тяжелые хардкор-баллады рассказывают правду о жизни людей в современном мире. Полный сарказма и критики альбом вызвал резонанс в музыкальных медиа. В альбоме «Hold It Down», вышедшем в 2000м году, "Madball" продолжили гнуть свою линию, совершенно не опасаясь ненависти и недоброжелательных отзывов. «Если мы уж выбрали такой путь, нам нет смысла от него отказываться», – сказали участники группы. В 2001 году группа приостановила свою деятельность на несколько лет. Винни Стигма ушел из коллектива, посвятив себя снова Agnostic Front и воспитанию сына. Фредди, будучи параллельно одним из вокалистов Hazen Street, продолжал выступления со своим сайд-проектом. Внезапно и взрывоопасно "Madball" вернулись на сцену в 2005 году в обновленном составе и с новым, безумным по энергетике, агрессивным альбомом «Legaсy». По словам самих музыкантов, «это самый тяжелый альбом, который мы когда-либо записывали». Новый "Madball" – это Freddy Cricien – вокал, Hoya – бас, Mitts – гитара, Rigg Ross – драмс • Ball of Destruction (7" EP) (1989/1992) • Droppin' Many Suckers (1992) • Set It Off (1994) • Demonstrating My Style (1996) • N.Y.H.C. Documentary Soundtrack (1996) • Look My Way (1998) • Hold It Down (2000) • Best of Madball (2003) - Compilation of greatest hits • N.Y.H.C. EP (2004, Thorp Records) • Legacy (2005) • Infiltrate The System (2007) • Empire(2010) Скрыть...
Популярные аккорды Madball:
алфавиту | просмотрам | случайно
  • E-------------------------------------------------------- 
    B-------------------------------------------------------- 
    G-------------------------------------------------------- 
    D--3--2-----8s7---8s7---3-----------8s7---8s7---8s7---3--…
  • E-|------------|---------------------------|-----------------------------| 
    B-|------------|---------------------------|-----------------------------| 
    G-|------------|---------------------------|-----------------------------|…
  • Dropped D tuning.
    
    Chord Progression
    
    Riff 1 Verse
    
    e--------------------------
    B--------------------------
    G--------------------------
    D---3-----6-----8----------
    A---3-----6-----8----------
    D---3-----6-----8----------
    
    Chorus…
  • e|-------------------------------------| 
    B|-------------------------------------| 
    G|---------------------------------3---| 
    D|----4/5---4/5---2----4/5---4/5---3---| 
    A|----4/5---4/5---2----4/5---4/5---1---| 
    E|----2/3-x-2/3-x-0----2/3-x-2/3-x-----…
  • Intro / Opening Note: 
    e|------------------| 
    B|------------------| 
    G|------------------| 
    D|---------7--------| 
    A|---------7--------| 
    E|---------5--------| 
    Hold for a long time. 
    
    Verse: 
    e|---------------------------------------------------------------------------|…
  • >=strum
    
    intro
    G:---------------------------------------------------------------
    D:---------------------------------------------------------------
    A:---------------------------------------------------------------
    E:-----------6---------------------------------------------------
    
    verse
    G:---------------------------------------------------------------
    D:---------------------------------------------------------------
    A:---------------------------------------------------------------
    E:--6--6>--6-4-6-6--6-6>-6-6-6-6--------------------------
    
    chorus
    G:---------------------------------------------------------------
    D:---------------------------------------------------------------
    A:---------------------------------------------------------------
    E:-4-7-7-7--4-7-7-7--6-6-6-6-6-----------------------------
    
    streets…
  • E-------------------------------------- 
    B-------------------------------------- 
    G-------------------------------------- 
    D---5**-6**----9**-10*---9**-10*------- 
    A---5**-6**----7**-8-*---7**-8-*------- 
    E---3**-4**----------------------------…
Наверх