Аккорды Mahavishnu Orchestra - Miles Beyond

Добавлено: @romashka
Дата добавления: 08 Декабря 2017г.
Рейтинг:
0.0
Просмотров: 191
Транспонировать - +
E|---||----------------------||------------------------------
B|---||*--------------------*||------------------------------
G|---||----------------------||-10-----8---------7-5--8-9-10-
D|-5-||--3------------3-4-5--||-10--10-8--8-6----6-4--7-8--9-
A|-3-||*-1--3-4-5--3--1-2-3-*||-----10----8-6----------------
E|---||-----1-2-3--1---------||------------------6-4--7-8--9-
         ad lib                            (10 beats)




E-||-----------------||-13------------||---------------------
B-||*---------------*||-16b18---------||*--------11-12----11-
G-||--8-7-5--8-9-10--||---------------||------12-------------
D-||--7-6-4--7-8--9--||---------------||---11----------------
A-||*---------------*||---------------||*--------------------
E-||--7-6-4--7-8--9--||---------------||---------------------
               ad lib last time




E|------------------10-----------------------10-13-12-10----
B|---------------11-----11-12---11-----------------------12-
G|-12---------12-------------------12-----12----------------
D|----12---11--------------------------11-------------------
A|----------------------------------------------------------
E|----------------------------------------------------------





E|----------------||------------------------------13-15--13-
B|-11------------*||--------------------11--13-15-----------
G|----12-10----9--||----------12--10-12---------------------
D|----------12----||----------------------------------------
A|---------------*||----------------------------------------
E|----------------||----------------------------------------
                three times


                                                  fermata

E|----------------------------------------------------
B|-15-13----------------------------------------------
G|-------15-12--10----10--12-10-----------------------
D|-----------------12-----------12-10-----------------
A|------------------------------------13--10--13--10--
E|----------------------------------------------------    
Наверх