Аккорды Manicure - I've Been Waiting

Добавлено: @romashka
Дата добавления: 12 Января 2020г.
Рейтинг:
0.0
Просмотров: 19
Транспонировать - +
Интро:
e-----------------------------------------------------------------|
B-----------------------------------------------------------------|
G-----------------------------------------------------------------|
D-----------------------------------------------------------------|
A-2-2-2-2-2-2-2-2-2-2-2-2-2-2-2-2---------------------------------|
E---------------------------------2-2-2-2-2-2-2-2-0-0-0-0-0-0-0-0-|

e-----2-------2-------2-------2-------0-------0-------2-------2---|
B-0-------0-------0-------0-------0-------0-------0-------0-------|
G-----------------------------------------------------------------|
d-----------------------------------------------------------------|
A-----------------------------------------------------------------|
E-----------------------------------------------------------------|

e-------------------------------------------------2-2-2-2-2-2-2-2-|
B-3-3-3-3-3-3-3-3-2-2-2-2-2-2-2-2-0-0-0-0-0-0-0-0-----------------|
G-----------------------------------------------------------------|
D-----------------------------------------------------------------|
A-----------------------------------------------------------------|
E-----------------------------------------------------------------|
x2

   D  A              G Bm 
Tonight you're very nice
         D               A                  G    Bm
Did you come here alone... Did you come here alone?
     D                               A      D
Are you that girl I've been waiting for long?
     D                                 G     Bm
Are you that girl.. I've been waiting for long!

e-------------------------------------------------------|
b-3---2---3---2---3-2-0-------3-3---2---3-3---2---3-2-0-|
g-------------------------------------------------------|
d-------------------------------------------------------| x2
a-------------------------------------------------------|
e-------------------------------------------------------|

      D  A             G  Bm
I am cold and totally tired
              D       A                         G Bm
Please don't leave me.. Please don't leave me alone
       D                                   A     D
Cause you are that girl I've been waiting for long
       D                                     G      Bm
Cause you are that girl.. I've been waiting for long!

       D                                 G  Bm
You're in you're out I can't make a sound, so (x8)

      D  A             G Bm
Too nice you're very nice
              D       A  G Bm
Won't you kiss me I'm lonely
       D                                  A D
Are you that girl I've been waiting for long?
       D                                 G Bm
You're in you're out I can't make a sound, so (x12)

Аккорд G лучше играть на 3 ладу, чтобы было удобнее приглушать.
comments powered by Disqus
Наверх