Аккорды «Marcy Playground»

Marcy Playground
Группа «Marcy Playground» была сформирована в середине 90-х в Нью Йорке. В состав команды вошли: Джон Уозняк (вокал, гитара, автор песен), Дилан Киф (бас-гитара) и Дэн Ризер (барабаны). Имя группы было позаимствовано от названия школы «Marcy Open School», в которой обучался, до конца семидесятых, будующий вокалист группы Джон Уозняк. Заключив контракт с лейблом «Capitol Records», трио выпускает свой дебютный альбом «Marcy Playground» в феврале 1997 года. Несколько месяцев спустя с момента… Читать полностью... Группа «Marcy Playground» была сформирована в середине 90-х в Нью Йорке. В состав команды вошли: Джон Уозняк (вокал, гитара, автор песен), Дилан Киф (бас-гитара) и Дэн Ризер (барабаны). Имя группы было позаимствовано от названия школы «Marcy Open School», в которой обучался, до конца семидесятых, будующий вокалист группы Джон Уозняк. Заключив контракт с лейблом «Capitol Records», трио выпускает свой дебютный альбом «Marcy Playground» в феврале 1997 года. Несколько месяцев спустя с момента выхода альбома, сингл группы «Sex and Candy» начинает ротироваться многими радиостанциями в следствии, чего альбом группы попадает в чарты США и получает платиновый статус. Позднее коллектив «Marcy Playground» приступил к записи своего очередного альбома «Shapeshifter». Альбом был выпущен спустя два года, с момента их многообещающего дебюта. Скрыть...
Популярные аккорды Marcy Playground:
алфавиту | просмотрам | случайно
  • Verse 1       x - 4                  Chorus       x - 3
    |---------------------|-------------||--------------|------------||
    |*--------------------|------------*||*-------------|-----------*||
    |*-2--2-2-2-0-2-0-2-2-|------------*||*-(R-x2)-5--5-|-----------*||
    |---------------------|-3--3--2--2--||--------------|-5--5--7--7-||
    
    
    |----------|-----------|-----------|-----------|----------------|
    |----------|-----------|-----------|-----------|----------------|
    |----------|-----------|-----------|-----------|----------------|
    |-5-5-5--5-|-7--7-3--3-|-5--5-7--7-|-3--3-3--3-|-2-2-2-2-2-2-2-2|
    
    Verse…
  • Yodeling Riff
    G|-------------------------------------------------------------|
    D|-------------------------------------------------------------|
    A|-------------------------------------------------------------|
    E|---5--5-2-2--2--5--5-2-2--2--5--5-2-2--2-0-0-0-0-0-0-0-0-----|
    
    Quiet
    G|----------------------------------------|
    D|----------------------------------------|
    A|-----6-6-6----4-4-4-4-------------------|
    E|-----------------------4-4-4----2-2-2-2-|
    
    Chorus
    G|--------------------------------|-----------------------------|
    D|--------------------------------|-----------------------------|
    A|--------------------------------|------------4-2--------------|
    E|--5-5-5-5-2-2-2-2-0-0-0-0-0-0---|----2---4-5-----4-0-5--------|
    
    back…
  • Em
    Christopher O' Malley
         D
    Went out on a bridge
    C
    Down in Chehalis
    Em
    Clutching his bible
          D
    And a letter from her
    C
    Fell into the river
    
    CHORUS:
    D               Em
    Pity no one was there
       D             Em
    No…
  • Intro
                                                  Main Riff
    G|--------------------------------|--------------------------------|
    D|--------------------------------|+------------------------------+|
    A|--------------------------------|+------------------------------+|
    E|-drum-2-2-2-2-/-5-5-5-5-0-0-0-0-|--0-0-1-2-2-2-2/5-5-5-5-0-0-0-0-|…
  • Intro/Verse
    
    Guitar #1
    |----------------------------------------------------------------|
    |----------------------------------------------------------------|
    |----------------------------------------------------------------|
    |-4---4---4---4---7---7---7---7---2---2---2---2---2---2-2-2---3--|
    |-4---4---4---4---7---7---7---7---2---2---2---2---2---2-2-2---3--|
    |-2---2---2---2---5---5---5---5---0---0---0---0---0---0-0-0---1--|
    
    Guitar…
  • A          F#       E
    
    e ----5---- ----2---- ----0----|
    B ----5---- ----2---- ----0----|
    G ----6---- ----3---- ----1----|
    D ----7---- ----4---- ----2----|
    A ----7---- ----4---- ----2----|
    E ----5---- ----2---- ----0----|…
  • Chords used:
    
       F#M      A       A5      G       D     D5      E
    
    |---2---|---0---|---x---|---3---|---2--|--x---|---0---|
    |---3---|---2---|---x---|---0---|---3--|--x---|---0---|
    |---4---|---2---|---x---|---0---|---2--|--x---|---1---|
    |---4---|---2---|---7---|---0---|---0--|--7---|---2---|
    |---2---|---0---|---7---|---2---|---x--|--5---|---2---|
    |---2---|---0---|---5---|---3---|---x--|--x---|---0---|
    
    During…
  • e----------------------------------------------------------|
    E----------------------------------------------------------|
    E-1---2p1---4-----1---2p1---4-----1---2p4---4-----1--------|
    E----------------------------------------------------------|
    E----------------------------------------------------------|
    E---0-----0---0-----0-----0---0-----0-----0---0-----0------|
    
    
    e----------------------------------------------------------|
    E------------------------x-x-x-9-9-x-x-------x-x-x-9-9-x-x-|
    E-4-4-4-4--4-4-4-4--2-2--x-x-x-9-9-x-x--2-2--x-x-x-9-9-x-x-|
    E-4-4-4-4--4-4-4-4--2-2--x-x-x-9-9-x-x--2-2--x-x-x-9-9-x-x-|
    E-2-2-2-2--2-2-2-2--2-2--x-x-x-7-7-x-x--2-2--x-x-x-7-7-x-x-|
    E----------------------------------------------------------|
    
    
    e------x-x-x-----------------------------------------------|
    E------x-x-x-----------------------------------------------|
    E-2-2--x-x-x-9-9-9--4-4-4-4--4-4-4-4-----------------------|
    E-2-2--x-x-x-9-9-9--4-4-4-4--4-4-4-4-----------------------|
    E-2-2--x-x-x-7-7-7--2-2-2-2--2-2-2-2-----------------------|
    E----------------------------------------------------------|
    
    REPEAT…
  • D         Bm        A         G        
    e ----2---- ----2---- ----0---- ----3----  
    B ----3---- ----3---- ----2---- ----0----  
    G ----2---- ----4---- ----2---- ----0----  
    D ----0---- ----4---- ----2---- ----0----  
    A ----0----…
  • Intro ( Palm muted ):
    E-----------------------------------------
    B-----------------------------------------
    G-777-9-999-777-9-999-777-9-999-777-9-999-
    D-777-9-999-777-9-999-777-9-999-777-9-999-
    A-555 7-777-555-7-777-555-7-777-555-7-777-
    E-----------------------------------------
    
    Verse:P.M------------------------------>
    E---------------------------------------------------------
    B---------------------------------------------------------
    G-777-9-999-777-9-999-777-9-999-77777777------------------
    D-777-9-999-777-9-999-777-9-999-77777777-77777777-55555555…
  • Intro / middle 8
    E|-----2-----0--------------|-----------0--------------|
    B|-----------------3-----3--|-----3-----------3-----3--|
    G|--------------------------|--------2-----------2-----|
    D|--0-----0-----0-----0-----|--------------------------|
    A|--------------------------|--3-----------3-----------|
    E|--------------------------|--------------------------|
    
    E|-----------0--------------|-----------0--------------|
    B|-----3-----------3-----3--|-----3-----------3-----3--|
    G|--------0-----------0-----|--------0-----------0-----|
    D|--------------------------|--------------------------|
    A|--2-----------2-----------|--1-----------1-----------|
    E|--------------------------|--------------------------|
    
    E|-----0-----0-----0-----0--|-----0-----0-----0-----0--|
    B|-----1-----1-----1-----1--|-----1-----1-----1-----1--|
    G|--------------0----0h2----|--3-----2------0----------|
    D|-------0h2----------------|--------------------3-----|
    A|--3-----------------------|--------------------------|
    E|--------------------------|--------------------------|
    
    E|-----0-----0-----0-----0--|-----0-----0-----0-----0--|
    B|-----0-----0-----0-----0--|-----0-----0-----0-----0--|
    G|--2-----------------------|--1-----------------------|
    D|--------2-----------------|--------2-----------------|
    A|--------------2-----------|--------------2-----0-----|
    E|--------------------0-----|--------------------------|
    
    Verse
    E|-----2---------2-------2---------|-----------0--------------|
    B|------------------------------3--|-----3-----------3-----3--|
    G|---------2-----------------2-----|--------2-----------2-----|
    D|--0---------------0--------------|--------------------------|
    A|---------------------------------|--3-----------3-----------|
    E|---------------------------------|--------------------------|…
  • Intro: B,C
    G            D             B                  C
     Who's the captain of the ship I think it's sinking
    G           D                  B            C              G   D
      I know I don't know what I know I don't know…
  • Intro: F,Am,G x2
    
    Verse 1:
    F   Am G
    Angel,
    
    You missed your chance
               F     Am   G
    To be the prom queen
    
    And so you turned
            F    Am  G
    Into a wet dream
    
    
    Pre Chorus:
                           C
    Star of your own…
  • Verse 1:
      Am       
    Jesse when you went to war
       G
    And never did return
      Am             
    Summer came and all the girls were
    G
    Sitting on the lawn
      Am            D    
    Looked down at all those letters
            G…
  • Intro:
    E:|-----------|-----------|-----------|
    B:|-----------|-----------|-----------|
    G:|-----------|-----------|-----------|
    D:|-----------|-----------|-----------|
    A:|-----------|-----------|-----------|
    E:|-0-0-1-0-1-|-4-4-5-4-5-|-7-7-6-7-6-|
    
    
    Main…
  • G         C         D    
    
    e ----3---- ----0---- ----2----
    B ----0---- ----1---- ----3----
    G ----0---- ----0---- ----2----
    D ----0---- ----2---- ----0----
    A ----2---- ----3---- ----0----
    E ----3---- ----0---- ----x----
    
    
    riff…
  • VERSES:
          E         D#*       c#         B        
    e ----x---- ----x---- ----x---- ----x----  
    B ----x---- ----x---- ----x---- ----x----  
    G ----9---- ----8---- ----6---- ----4----  
    D ----6---- ----6---- ----7---- ----4----…
  • Main Riff: 
    E|-------------------------------------|
    B|-------------------------------------|
    G|-13-13--13----13---------------------|
    D|--x--x-------------7-7-7-7--9-9-9-9--|
    A|-11-11-----11------7-7-7-7--9-9-9-9--|
    E|-------------------5-5-5-5--7-7-7-7--|
    
    Verse…
  • (Note That these riffs all have loose palm muting at times)
    
    Verse Riff:
    -------0---0----------0----------0---0--------0-|
    -------8---8----------8----------2---2--------2-|
    -------7---7----------7----------0---0--------0-|
    -------6---6----------6----------2---2--------2-|
    -------7---7----------7---0--0---0---0--0--0--0-|
    0--0---0---0---0--0---0-------------------------|
    
    
    Chorus:
    --------2--2--------2--------0--0--------0-------|
    --------3--3--------3--------0--0--------0-------|
    --------2--2--------2--------1--1--------1-------|
    --0--0--0--0--0--0--0--------2--2--------2-------|
    -----------------------------2--2--------2--0--0-|
    -----------------------0--0--0--0--0--0--0-------|
    
    
    Post…
  • E|---0----0--------|          1.) distortion
    B|---0----3--------|  %       2.) acoustic
    G|---0----2--------|          3.) clean (electric)    
    D|---2----0--------|  Intro
    A|---2-------------|
    E|-0-----------3-2-|
    
    
    E|----------|-------2---|-------2---|-------------|
    B|-------0--|---------3-|---------3-|-------0-----|…
  • Drop D tuning
    
    
    Main Riff:
          E       G   D             D#
    e|-------------------------------------------
    B|-------------------------------------------
    G|-------------------------------------------
    D|-------------------------------------------
    A|----2--2/---5---0--0---0--0---1--1---1--1--
    D|----2--2/---5---0--0---0--0---1--1---1--1--
    
    
    Interlude…
  • G         Em        C         D
          
    e ----3---- ----0---- ----0---- ----2----
    B ----0---- ----0---- ----1---- ----3----
    G ----0---- ----0---- ----0---- ----2----
    D ----0---- ----2---- ----2---- ----0----
    A ----2---- ----2----…
  • A:
    e:|---------------------------------|
    B:|---------------------------------|
    G:|---------------------------------|
    D:|---6---6---6---7---7---7---7---7-|
    A:|---------------------------------|
    E:|-0---0---0---0---0---0---0---0---|
    
    e:|---------------------------------|
    B:|---------------------------------|
    G:|---------------------------------|
    D:|---4---4---4---6---6---6---6---6-|
    A:|---------------------------------|
    E:|-0---0---0---0---0---0---0---0---|
    
    
    B:
    e:|---------------------------------|
    B:|---------------------------------|
    G:|---------------------------------|
    D:|---6---6---6---6---6---6---6---6-|
    A:|-4---4---4---4---4---4---4---4---|
    E:|---------------------------------|
    
    
    e:|---------------------------------|
    B:|---------------------------------|
    G:|---------------------------------|
    D:|---7---7---7---7---7---7---7---7-|
    A:|-5---5---5---5---5---5---5---5---|
    E:|---------------------------------|
    
    
    
    e:|---------------------------------|
    B:|---------------------------------|
    G:|---------------------------------|
    D:|---------------------------------|
    A:|---7---7---7---7---7---7---7---7-|
    E:|-5---5---5---5---5---5---5---5---|
    
    
    C:
    e:|---------------------------------|
    B:|---------------------------------|
    G:|---------------------------------|
    D:|---6---6---6---6---6---6---6---6-|
    A:|---------------------------------|
    E:|-0---0---0---0---0---0---0---0---|
    
    
    D:
    e:|---------------------------------|
    B:|---------------------------------|
    G:|---------------------------------|
    D:|---6---6---6---7---7---7---7---7-|
    A:|---------------------------------|
    E:|-0---0---0---0---0---0---0---0---|
    
    
    
    E:	E2:
    e:|-5--|-------------------------------------------------------|
    B:|-5--|-------------------------------------------------------|
    G:|-6--|-------------------------------------------------------|
    D:|-7--|-----6-5-h7p6p5h6p5h62--repeat…
  • (Acoustic guitar)
    
    E       A                D        G
    Ancient walls of flowers tumbling down
    
    E         A            D       G
    Black cat petals and a smiling clown
    
    E         A              D   G
    I like to keep them in…
  • Chords:     D5       G5       C5       G        D        D7       C
             (X577XX) (355XXX) (X355XX) (320033) (000323) (000212) (032010)
    
    Intro: D5,G5
    
    Verse 1:
     D5   G5         D5          G5
    Some cats, they know how…
  • I know this is only the intro but they play it a few times during the song 
    aswell. Just listen to the album to figure out the timing.
    
    e|---4---4---2---4---------5----5----2----2-------------------------|
    B|------------------------------------------------------------------|
    G|---4---4---2---4---------6----6----2----2-------------------------|
    D|------------------------------------------------------------------|
    A|------------------------------------------------------------------|
    E|------------------------------------------------------------------|
    
    e|---5---5---2---2---5-----------2----4-----------------------------|
    B|--------------------------5-----------------4-------5-------------|
    G|---6---6---2---2---6-----------2----4-----------------------------|
    D|--------------------------6--------------4------6-----------------|
    A|------------------------------------------------------------------|
    E|------------------------------------------------------------------|…
  • G         D
    
    e ----3---- ----2----
    B ----3---- ----3---- 
    G ----0---- ----2----
    D ----0---- ----0---- 
    A ----2---- --------- 
    E ----3---- --------- 
    
    
    riff 1
                                           
    e -------------------3----------3----
    B…
  • Intro: D,C,C/B,Bb,A  (The only riff)
    
    Verse 1:
    The sign says...
    Rainbow's ending two miles
    The sign says here..
    That there is a pot of gold
    For your immortal soul
    Now on and on we go
    We danced with the devil
    And we walked…
  • G         C         F
    
    e ----3---- ----0---- ----1----|
    B ----0---- ----1---- ----1----|
    G ----0---- ----0---- ----2----|
    D ----0---- ----2---- ----3----|
    A ----2---- ----3---- ----3----|
    E ----3---- ----0---- ----1----|
    
    
    G
    High…
  • Intro: C G# C G# C G# G
    
    Verse 1:
      C          G#
    I think I'll tell a friend
     C         G#       
    Just to let 'em in  
    C      G#      G
    on a secret I know
    C      G#
    No, I better not
     C         G#     
    I'm too paranoid 
    C…
  • Verse 1:
    So where o' where do all the revolutionaries hide
    Have they all decided not to come outside ( Walk down notes B, Bb, A)
    A                 E
    Give me a simple sign
    A                   E         B
    To know if you're…
Наверх