Аккорды Marek Grechuta - Без тебя

Добавлено: @romashka
Дата добавления: 09 Апреля 2019г.
Рейтинг:
0.0
Просмотров: 23
Транспонировать - +
Вступление:
  A5      F#5     D5      E5 F#5 E5
e---------------------------------|
b-----2-------2-------2---3--2--0-|
g-------2-------2-------2---------|
d-2-------2-------2---------------| x3
a---------------------------------|
e---------------------------------|

  A5      F#5     D5
e---------------------------------|
b-----2-------2-------------------|
g-------2-------2-----------------|
d-2-------2-------2---------------|
a---------------------------------|
e---------------------------------|

Куплет 1:
A5           F#5          D5     E5 F#5 E5
Луч солнца пробивается сквозь мое окно.
A5      F#5      D5           E5 F#5 E5 
Я просыпаюсь этим утром, чтобы вновь
A5           F#5        D5       E5 F#5 E5
Понять, что жизнью этой я по горло сыт
A5          F#5         D5    E5 F#5 E5
Быть может лучший выход это суицид? 

Куплет 2:
A5       F#5        D5           E5 F#5 E5
Меня не радует прекрасный летний день.
A5      F#5     D5            E5   F#5 E5 
Не замечая ничего совсем, я словно тень
A5     F#5          D5       E5 F#5 E5 
Иду по улицам, все кажется чужим.
A5        F#5             D5          E5 F#5 E5 
Терзаюсь мыслью, что ты вновь сегодня с ним. 

Припев:
D5                    E5
И все вокруг теряет смысл день ото дня 
       A5 F#5 D5 E5    A5 F#5 D5 E5 | A5 F#5 D5 E5 D5
Без тебя,       без тебя. 

Куплет 3:
A5      F#5        D5       E5 F#5 E5
Я не могу уснуть уже какую ночь.
A5     F#5             D5           E5   F#5 E5 
Беду я эту, нет, не в силах вовсе превозмочь.
A5          F#5      D5              E5 F#5 E5 
Ведь в голове моей один лишь образ твой,
A5       F#5       D5             E5 F#5 E5 
Который не дает поладить мне с собой. 

Припев:
D5                    E5
И все вокруг теряет смысл день ото дня 
       A5 F#5 D5 E5    A5 F#5 D5 E5 | A5 F#5 D5 E5 D5
Без тебя,       без тебя. 

Соло:
A5                F#5               D5              E5      F#5 E5
e---------------------------------|---------------------------------|
b---------------------------------|---------------------------------|
g---------------------------------|---------------------------------|
d---------------------------------|-------4---4-7---7---5---4---2---| x3
a-------4---4-7---------4---4-5---|-5---5---------------------------|
e-5---5-----------2---2-----------|---------------------------------|

A5                F#5               D5
e---------------------------------|---------------------------------|
b---------------------------------|---------------------------------|
g---------------------------------|---------------------------------|
d---------------------------------|---------------------------------| x3
a-------4---4-7---------4---4-5---|-5-4-5-4-5-4-5-4-5---------------|
e-5---5-----------2---2-----------|---------------------------------|

Куплет 1 (повтор):
A5           F#5          D5         E5 F#5 E5
Луч солнца пробивается сквозь мое окно.
A5      F#5       D5             E5 F#5 E5 
Я просыпаюсь этим утром, чтобы вновь
A5           F#5        D5          E5 F#5 E5
Понять, что жизнью этой я по горло сыт
A5          F#5         D5      E5 F#5 E5
Быть может лучший выход это суицид? 

Припев:
D5                    E5
И все вокруг теряет смысл день ото дня 
       A5 F#5 D5
Без тебя,        
E5     A5 F#5 D5 
без тебя,       
E5     A5 F#5 D5
без тебя,       
E5     A5 F#5 D5
без тебя.

Outro: E5 A5 F#5 D5 | A5 F#5 D5 E5 D5  
comments powered by Disqus
Наверх