Аккорды «Mark Knopfler»

Mark Knopfler
Сэр Марк Фро́йдер Но́пфлер (англ. Mark Freuder Knopfler, род. 12 августа 1949, Глазго, Шотландия) — британский рок-музыкант, певец и композитор, один из сооснователей группы Dire Straits. Его вокал лучше всего описывается немецким термином Sprechgesang — не совсем пение, но и не разговор. Он использует гитару так, как будто она является его вторым «голосом». Наибольшую популярность приобрёл в качестве автора песен, соло-гитариста и вокалиста группы Dire Straits, а сейчас ведёт сольную карьеру… Читать полностью... Сэр Марк Фро́йдер Но́пфлер (англ. Mark Freuder Knopfler, род. 12 августа 1949, Глазго, Шотландия) — британский рок-музыкант, певец и композитор, один из сооснователей группы Dire Straits. Его вокал лучше всего описывается немецким термином Sprechgesang — не совсем пение, но и не разговор. Он использует гитару так, как будто она является его вторым «голосом». Наибольшую популярность приобрёл в качестве автора песен, соло-гитариста и вокалиста группы Dire Straits, а сейчас ведёт сольную карьеру и выступает с другими проектами (например The Notting Hillbillies). Работал с множеством артистов, включая Боба Дилана, Эрика Клэптона, Стинга, Чета Эткинса (альбом Neck & Neck является самой крупной их совместной работой). Продюсировал альбомы очень многих музыкантов, среди которых Тина Тёрнер, Крис Ри, Боб Дилан, Эмиллу Харрис. Написал музыку к таким фильмам, как Local Hero, The Princess Bride, Call, Metroland, Last Exit to Brooklyn и Wag the Dog. В 2003 году артист попал в автомобильную аварию, и отменил турне поддержки альбома "The Ragpicker’s Dream" (2002), но через год сумел вернуться на сцену. Нопфлер — один из лучших гитаристов, предпочитающих пальцевую технику звукоизвлечения. Он занял 27 позицию в списке 100 величайших гитаристов всех времён по версии журнала Роллинг Стоун. В 2009 году к своему 60-летию Нопфлер выпустил альбом "Get Lucky" ("Лови удачу"). Скрыть...
Популярные аккорды Mark Knopfler:
алфавиту | просмотрам | случайно
  • Intro:   F#m    A  | D     E   | 
                F#m         | D     E   | X3 
    F#m                                                    A                                        D…
  • tuning: standard
    h=hammer on
    p=pull off
    ~=vibrato              
    
    e--------------------------------|
    B----------10-------------10~----|
    G---10-h12----h12-p10------------|
    D---------------------h12--------|
    A--------------------------------|
    E--------------------------------|
    
    
    e----------------------|
    B---10-----------11~---|
    G------h12-p10---------|
    D----------------------|
    A----------------------|
    E----------------------|
    
    
    e-----------------------------------|
    B----------10-----------------------|
    G---10-h12----h12-p10---12~--10-12~-|
    D-----------------------------------|
    A-----------------------------------|
    E-----------------------------------|
    
    
    e--------------------------------|
    B----------10-------------10~----|
    G---10-h12----h12-p10------------|
    D---------------------h12--------|
    A--------------------------------|
    E--------------------------------|
    
    
    e----------------------|
    B---10-----------11~---|
    G------h12-p10---------|
    D----------------------|
    A----------------------|
    E----------------------|
    
    
    e---10--------10-------------------|
    B------13-p11----13~----------13~--|
    G---------------------12-12~-------|
    D----------------------------------|
    A----------------------------------|
    E----------------------------------|
    
    
    
    e--------------------------------|
    B----------10-------------10~----|
    G---10-h12----h12-p10------------|
    D---------------------h12--------|
    A--------------------------------|
    E--------------------------------|
    
    
    e----------------------|
    B---10-----------11~---|
    G------h12-p10---------|
    D----------------------|
    A----------------------|
    E----------------------|
    
    
    e------------------------------------------------|
    B----------10------------------------10--11--13~-|
    G---10-h12----h12-p10---12~--10--12--------------|
    D------------------------------------------------|
    A------------------------------------------------|
    E------------------------------------------------|
    
    
    
    e--------------------------------|
    B----------10-------------10~----|
    G---10-h12----h12-p10------------|
    D---------------------h12--------|
    A--------------------------------|
    E--------------------------------|
    
    
    e----------------------|
    B---10-----------11~---|
    G------h12-p10---------|
    D----------------------|
    A----------------------|
    E----------------------|
    
    
    e---10--------10-----------------------|
    B------13-p11----13~-------------------|
    G---------------------12-12~--14~--14--|
    D--------------------------------------|
    A--------------------------------------|
    E--------------------------------------|
    
    
    e--------------------------------|
    B----------10-------------10~----|
    G---10-h12----h12-p10------------|
    D---------------------h12--------|
    A--------------------------------|
    E--------------------------------|
    
    
    e----------------------|
    B---10-----------11~---|
    G------h12-p10---------|
    D----------------------|
    A----------------------|
    E----------------------|
    
    
    e--------------------------------------------|
    B----------10--------------------------------|
    G---10-h12----h12-p10---12~--10-12~--14~--14-|
    D--------------------------------------------|
    A--------------------------------------------|
    E--------------------------------------------|
    
    
    e--------------------------------|
    B----------10-------------10~----|
    G---10-h12----h12-p10------------|
    D---------------------h12--------|
    A--------------------------------|
    E--------------------------------|
    
    
    e----------------------|
    B---10-----------11~---|
    G------h12-p10---------|
    D----------------------|
    A----------------------|
    E----------------------|
    
    
    
    e---10--------10---------------13-12-------|
    B------13-p11----13~-----------------15-13-|
    G---------------------12-12~---------------|
    D------------------------------------------|
    A------------------------------------------|
    E------------------------------------------|
    
    
    
    e--------------------------------|
    B----------10-------------10~----|
    G---10-h12----h12-p10------------|
    D---------------------h12--------|
    A--------------------------------|
    E--------------------------------|
    
    
    e----------------------|
    B---10-----------11~---|
    G------h12-p10---------|
    D----------------------|
    A----------------------|
    E----------------------|
    
    
    e----------------------------------------|
    B---10---------------------10-11-13~-13~-|
    G------h12-p10--12~--10-12---------------|
    D----------------------------------------|
    A----------------------------------------|
    E----------------------------------------|
    
    
    e--------------------------------|
    B----------10-------------10~----|
    G---10-h12----h12-p10------------|
    D---------------------h12--------|
    A--------------------------------|
    E--------------------------------|
    
    
    e----------------------|
    B---10-----------11~---|
    G------h12-p10---------|
    D----------------------|
    A----------------------|
    E----------------------|
    
    
    e---10--------10---------------13-12-------|
    B------13-p11----13~-----------------15-13-|
    G---------------------12-12~---------------|
    D------------------------------------------|
    A------------------------------------------|
    E------------------------------------------|…
  • Fills played blues style plenty of bass
    Solo played fairly normal, lovely singing guitar
    
    
    E|----------------------------------|
    B|----------------------------------|
    G|----------------------------------|
    D|-----1h3-3p1--1h3-4h5p4p3-1-------|
    A|-1h3------------------------3-1h3-|
    E|----------------------------------|
    
    C…
  • * in the instrumental parts, each chord name is one bar.
    
    * all the solos in the song are nice A major scales, very easy to figure out.
    
    * strange chords used: D6 is xx0202, A/C# is x42220, D/A is x00232.
    
    
    now, acoustic,…
  • G
    The rock you stood upon
    
    is broken up and gone
         F       C                G
    Hey baby,     who's your baby now
    
    
    On the slipway of your dream
    
    stands someone else's scheme
         F       C                G
    Hey baby,…
  • Intro: Em
    
    Em
    Your date has gone home
    Now you?re left on your own sweet own
    Your tough-talkin' friend
    Split on you in the bitter end
    
    Em                  G          Em
    And you look like a fine thing Jerry
    Em…
  • Standard Tuning
    
    
    E--------------------------------|
    B---------h5-4p2(v)--------------|
    G--------------------4s3s4-4-----|
    D--2p4s6---------------------2---|
    A--------------------------------|
    E--------------------------------|
    
    From…
  • Intro:
    
    1|-------------------------|----------------------------------------|
    2|----------3----------3---|-----------3--------3---------3---------|
    3|-----3-----------3-------|-------3------0-3----------0------------|…
  • e|-------------------------------------------------------------------|
    H|--------5-7-5-5~---------------------------------------------------|
    G|---4/6--------------7h9-7h9-6------9-----------------9-7~-(9)------|
    D|-------------------------------------119-7--------7---------------|
    A|---------------------------------7-------------7/9-----------------|
    E|-------------------------------------------------------------------|
    
    e|-------------------------------------------------------------------|
    H|--------------------------------------------5-7b9r7-5/7------------|
    G|---xx-4b6-b6--6h7p6-4---7-6--4----------4/6------------------------|
    D|----------------------7--------7-(7)-------------------------------|
    A|-------------------------------------------------------------------|
    E|-------------------------------------------------------------------|
    
    e|-----5--4----------------------------------------------------------|
    H|----7-----7-5h7p5---------7-6-5~/7---------------------------------|
    G|---6--------------7-6-5-4-----------------7-6h7p6-4-4b6r4-2--------|
    D|--------------------------------------4-4--------------------------|
    A|-------------------------------------------------------------------|
    E|-------------------------------------------------------------------|
    
    e|-------------------------------------------------------------------|
    H|------------------------12b14-b14-12b14-12-12--10p9h12-10-10-------|
    G|----97-6-(4)(2)----(9)--------------------------------------------|
    D|---119-7-(6)(2)-----x---------------------------------------------|
    A|--------------------x----------------------------------------------|
    E|-------------------------------------------------------------------|
    
    e|----------------------------------12-10p9-12-10-10/12--------------|
    H|-------------------------------10----------------------------------|
    G|---9h11-9h11p9------------9h11-------------------------------------|
    D|----------------(9/11p9)-------------------------------------------|
    A|-------------------------------------------------------------------|
    E|-------------------------------------------------------------------|
    
    e|-------------------------------------------------------------------|
    H|-------12b14-b14-b14r12--14-14h15p14-12-(10)(10)-------------------|
    G|---(9)-------------------------------------------------------------|
    D|----x--------------------------------------------------------------|
    A|---x---------------------------------------------------------------|
    E|-------------------------------------------------------------------|
    
    e|-------------------------------------------------------------------|
    H|---12/14-14-15-15/17-17-17-12-12(10)------------------------------|
    G|-------------------------------------------------------------------|
    D|-------------------------------------------------------------------|
    A|-------------------------------------------------------------------|
    E|-------------------------------------------------------------------|
    
    e|-----14---------16p14--14p12---------------------------------------|
    H|---14--17b19-b19-----14-----14p12h14-12/13h14p1312------14--------|
    G|---------------------------------------------------11(11)--14(/16)-|
    D|-------------------------------------------------------------------|
    A|-------------------------------------------------------------------|
    E|-------------------------------------------------------------------|
    
    e|---------------------------12----------------------12--------------|
    H|---------15-14h15p14-12-------12b14r12-10~---12/14-----------------|
    G|---11-11-----------------9-----------------------------------------|
    D|------------------------------------------------------14-13-12-(7)-|
    A|------------------------------------------------------16-15-14-(7)-|
    E|-------------------------------------------------------------------|
    
    
    This…
  • Em - G - Em - D
    
    
                Em
    
    1. I am Jeremiah Dixon, I am a Geordie boy,
    
                                                                    G                C
    
        a glass of wine with you, sir , and the ladies I'll enjoy.…
  • Capo 3 
     
    Intro: F  C/E | (C/E) Em7/B | Fmaj7 | (Fmaj7) }x2
           Dm  C/E | (C/E) | Fmaj7 | (Fmaj7) 
           F  C/E | (C/E) Em7/B | Fmaj7 | (Fmaj7)  
           Am | Am | Am | Am  
           Am  G | G | Am  G Em…
  • Intro: Am  C  E7  Am }x2
           E7  Am  Am  Am  Am
     
    Verse:
     C              Em             Am G
     One thing was leading to the next 
     F                            G
     I bit off more than I could chew 
     C          Em…
Наверх