Аккорды Мать Тереза - Калина

Добавлено: @romashka
Дата добавления: 30 Ноября 2019г.
Рейтинг:
0.0
Просмотров: 24
Транспонировать - +
Сначала несколько риффов:
Рифф 1
1----------------------------------------------------------------------|
2|----------0---------------0---------------------------------0--------|
3|------0---------------0--------------------0------------0-------0----|
4|----9---9---9-------5---5---5----------0--------------4---4---4---4--|
5|--7-----------7-5-3------------3-0---5---5---5------2----------------|
6------------------------3------------3-0------------------------------|

Рифф 2
1------------------------------------------------|
2------------------------------------------------|
3|------0----------0----------------------0------|
4|----9---9------5---5--------0---------4---4----|
5|--7----------3------------5---5-----2----------|
6-------------3----------------------------------|

Рифф 1
Как гуляли в поле толпы модных модернистов,
Рифф 1
Как кидали дичь в глотки дурных пацифистов,
Рифф 1
Как публичные подонки голытьбе кишки пускали
Рифф1
Как в гробу лежать устали, встали - до небес достали.

Как сорвался с колокольни наш поэт, счастливчик Сашка,
Как Егор на всю страну проорал за всю, за всю,
Как смеркалось, я ослеп и припал к земле зубами
Под кремлевскими стенами, под монгольскими степями.

Рифф 2
Красная калина, нам с тобой в запасе вечность,
Рифф 2
Только глянешь - нет калины, ровно голые здесь пни
(боем)
Em   C G B7
Гони!
Em   C G B7
Гони!
(боем)
  Em          C             G       B7
Со слепу не знал я, что придется умирать,
  Em             C                   G        B7
Мертвых легче забывать, но мертвым легче воскресать,
  Em             C       G         B7
Как завидуют успехам егеря Эдиты Пьехи
  Em              C            G             B7
Кабы мне одеть картуз, а пришлось надеть доспехи.

Хватит ли нам водки, если по пруду на брата, 
Хватит ли нам снега, если по снежинкам хапать,
Хватит ли нам воли, если знать ее не знали,
Хватит ли любови, если звать ее не звали.  

Гони! 
Гони!

А нас много, мы привыкли пожинать простор стопами,
К нам в распахнутую дверь заходи косматый зверь.
Чтоб мальчишки не орали - позовем грудастых баб,
Вот ребятки вам и сейшн, вот ребятки вам и гранж.
А нас давят геноцидом, мы в колодце поблюем,
Так и искровенной силой, эх, иконки обольем.
Широтой души своею распугали иноверцев.
Эх, мудила Солженицын, ты достал всех этим земством.

  Em       C              G           B7
Красная калина, нам с тобой в запасе вечность,
  Em                    C           G          B7
Только глянешь - нет калины, ровно голые здесь пни
Em   C G B7
Гони!
Em   C G B7
Гони! 

Рифф 1
Как влюбился вор в луноликую монашку
Рифф 1
И чтоб быть к ней ближе духом на земле построил храм.
Рифф 1
Облака его тянули пуповинною пристяжкой
Рифф 1
Он увел ее силком и у них родился ангел.
(боем)
Em   C G B7
Гони!
Em   C G B7
Гони!
comments powered by Disqus
Наверх