Аккорды Meat Puppets - Aurora Borealis

Добавлено: @romashka
Дата добавления: 06 Июня 2020г.
Рейтинг:
0.0
Просмотров: 20
Транспонировать - +
Вступление / Intro

E 2--8----------------0------
B 3----11---------0---0------
G 2------10-8---------0------
D 0-----------10----2--------
A X-----------------2--------
E X-----------------0--------

Основная часть / Main Part

E 0-0---2-2----11----------------2--
B 1-1---3-3------14--11-13-11----3--
G 0-0---2-2--------13--------13--2--
D 2-2---0-0----------------------0--
A 3-3---X-X----------------------X--
E X-X---X-X----------------------X--

E 8-------------(0)--0-
B --11--8-10-8-------0-
G ----10------10-----0-
D -----------------2---
A -----------------2---
E -----------------0---

Вторая часть / Interlude 


E --0---------0--
B --0---------0--  
G --9--7------9--
D --9----9----9--
A --7------7--7--
E 0-----------0--

E ---------------0---------------------------
B -------------1-------3p1---1----1---------1
G --------0----------------0--------0-----0--
D --0---2------------2----------------0h2----  => Em 
A 2---3--------------------------------------
E -------------------------------------------

E 0-----------3p0---0--3
B 1---------1-----1----1
G 0-------0------------0
D 2---0h2--------------2 
A 3--------------------3 
E X--------------------X

Этот аккорд играется сколько угодно, затем переход на Em и 
либо играете снова Interlude, либо снова Основную Часть. 
Когда играете в Interlude аккорды C и Em, 
то допускаются вольные вариации с первой и второй струнами на третьем ладу (мизинцем).
Песня играется пока не надоест, заканчивается аккордом Em (в принципе в любом месте песни)
 / 
This C chord is played for how long you want, after C chord goes Em chord. 
Then you may play Interlude again or Main Part again. 
Free variations are possible with C and Em chords when playing Interlude. 
The song is finished at any moment with Em chord.

X - струна не играется / string is not strummed
Наверх