Аккорды Michael Jackson - Give In to Me

Добавлено: @romashka
Дата добавления: 12 Февраля 2022г.
Рейтинг:
0.0
Просмотров: 49
Транспонировать - +
[Intro]

E|--------------------|-----|-----|
B|--------------------|-----|---3-|
G|----------0---------|-0---|---0-|
D|------2-4---4-2---2-|---0-|-4---| x2
A|----2-----------2-3-|---5-|-----|
E|--0-----------------|-----|-----|



[Verse 1]

She always takes it with a heart of stone
E|-----------------------------|------|
B|-----------------------------|---3--|
G|----------0-----------0------|---0--|
D|------2-4---4-2-----2--------|-4----|
A|----2-----------2-3--------5-|------|
E|--0--------------------------|------|

Cause all she does is throw it back to me
E|-----------------------------|------|
B|-----------------------------|---3--|
G|----------0-----------0------|---0--|
D|------2-4---4-2-----2--------|-4----|
A|----2-----------2-3--------5-|------|
E|--0--------------------------|------|

I've spent a lifetime looking for someone
E|-----------------------------|------|
B|-----------------------------|---3--|
G|----------0-----------0------|---0--|
D|------2-4---4-2-----2--------|-4----|
A|----2-----------2-3--------5-|------|
E|--0--------------------------|------|

Don't try to understand me.     Just simply do the things I say
E|----------------------------|---------------------0------------|
B|--------------0-3-------1---|-------------------0-----3-3-3-3--|
G|----4-4-4-----4-4-----2---2-|---------4-4-4-----3-----2-2-2-2--|
D|----4-4-4---4-------2-------|---------4-4-4---4-----0----------|
A|--2-------2-------0---------|-0---0-2-------2------------------|
E|----------------------------|---3------------------------------|



[Chorus]

           Em  
Love is a feeling  
                C      D 
Give it when I want it  
              Em  
'Cause I'm on fire  
             C   D  
Quench my desire  
                Em  
Give it when I want it  
            C    D  
Talk to me woman  
           Em  
Give in to me   
              C B  
Give in to me



[Verse 2]

You always knew just how to make me cry
And never did I ask you questions why
It seems you get your kicks from hurting me
Don't try to understand me
Because your words just aren't enough



[Chorus]

           Em  
Love is a feeling  
             C   D 
Quench my desire
               Em  
Give it when I want it
           C     D  
Takin' me higher
          Em  
Love is a woman
                 C      D  
I don't want to hear it
           Em  
Give in to me   
              C B  
Give in to me



[Bridge]

Am 
  You and your friends
                G 
  Were laughing at me in town
           Em 
  But it's okay
           Em 
  And it's okay
Am 
  You won't be laughing girl
       G 
  When I'm not around
          F
  I'll be okay 
          B 
  And I'll, I'll not find... Gotta... The peace of mind, No
 


[Solo]

E|--------------------|-----|-----|
B|--------------------|-----|---3-|
G|----------0---------|-0---|---0-|
D|------2-4---4-2---2-|---0-|-4---| x3
A|----2-----------2-3-|---5-|-----|
E|--0-----------------|-----|-----|


           Don't try to tell me, because your words just aren't enough
E|----------------------------|---------------------0------------|
B|--------------0-3-------1---|-------------------0-----3-3-3-3--|
G|----4-4-4-----4-4-----2---2-|---------4-4-4-----3-----2-2-2-2--|
D|----4-4-4---4-------2-------|---------4-4-4---4-----0----------|
A|--2-------2-------0---------|-0---0-2-------2------------------|
E|----------------------------|---3------------------------------|



[Chorus]

           Em  
Love is a feeling  
             C   D 
Quench my desire
               Em  
Give it when I want it
           C     D  
Takin' me higher
           Em
Talk to me woman  
           C      D 
Love is a feeling
           Em                               C  D
Give in to me, give in to me, give in to me... Oh


           Em  
Love is a feeling   
               C      D  
I don't wanna hear it  
             C   D 
Quench my desire 
           C     D  
Takin' me higher 
                Em  
Tell it to the preacher  
              C     D 
Satisfy the feeling  
           Em                               C D
Give in to me, give in to me, give in to me



Em  C  D  x4



[Outro]

D                                             Em      
  I don't wanna, I don't wanna, I don't wanna hear it  
                C   D 
Give it to the fire  
           Em  
Talk to me woman  
             C   D 
Quench my desire   

               Em  
I don't like a lady  
            C   D 
Talk to me baby  
           Em   C D
Give in to me...

               Em
Give it to the fire   
              C  D
Give in to me
           Em               C  D 
Give in to me... give in to me

           Em  
Talk to me woman 
           C  D
Give in to me
           Em                C  D
Give in to me, give in to me

           Em
Give in to me
               C   D
'Cause I'm on fire  
           Em  
Talk to me woman
             C   D 
Quench my desire  

                Em     C  D 
Give it to the feeling

Em  C  D  Em... 
Наверх