Аккорды Mike Posner - Please Don't Go

Добавлено: @romashka
Дата добавления: 04 Декабря 2017г.
Рейтинг:
0.0
Просмотров: 122
Транспонировать - +
Chorus:
--0---0---0---0---0---0---0---0--|
--0---0---0---0---0---0---0---0--|
--0---0---0---0---0---0---0---0--|
--x---4---2---0---x---4---5---2--|
--5---2---3---2/--5---2---7---3--|
--5-----------2/--5--------------|

Bridge:
-----------------0--0-------0--0---0---0--0---0---0--0----0--|
-------<12>--0---0--0---0---0--0---0---0--0---0---0--0----0--|
--<12>-------0---0--0---0---0--0---0---0--0---0---0--0----0--|
-------------0---0--4---0---0--4---0---0--4---0---x--4/---7--|
-------------2/--5--2---2/--5--2---2/--5--2---2/--5--2/---5--|
-------------2/--5------2/--5------2/--5------2/--5----------|
Наверх