Аккорды Military Jane - Queen

Добавлено: @romashka
Дата добавления: 03 Апреля 2019г.
Рейтинг:
0.0
Просмотров: 29
Транспонировать - +
Куплет:
|----0-------0-------0-------0-3-0-|
|----1-------1-------1-------1-----|
|--0---0---0---0---2---2---0-------|
|----------------3-------0---------|
|0-------3-------------------------|
|----------------------------------|

You'll be Queen
You'll be Queen only in my dream
You like to come here with the wind
And you'll be Queen
When I fall asleep and see
You meet me in white dress and say:
I'm tired, I'm tired to wait you

Припев:
Dm           G
Tell me when we will meet again
Dm             G E
When the night taps on my door

Куплет:
|----0-------0-------0-------0-3-0-|
|----1-------1-------1-------1-----|
|--0---0---0---0---2---2---0-------|
|----------------3-------0---------|
|0-------3-------------------------|
|----------------------------------|

And you'll be Queen
Even hell doesn't destroy love
And all birds sing their songs for us

And you'll be Queen
But I know that is not true
You live in my mind only,
And cry, and cry me every time that

Припев:
Dm           G
Tell me when we will meet again
Dm             G E
When the night taps on my door
comments powered by Disqus
Наверх