Аккорды «Millencolin»

Millencolin
Millencolin – панк-рок группа, созданная в октябре 1992 года Эриком Олссоном, Матиасом Фермом и Николой Саркевичем в Эребру, Швеция. Фредерик Ларзон присоединился к группе в начале 1993 года, и с тех пор состав не менялся. Millencolin, из-за их пристрастия к скейтбордингу, происходит от слова "меланхоли" – трюка в скейтбординге (также известный как "сэд-эир"). Группа выпускает свои компакты на шведском лейбле Burning Heart Records (Epitaph Records в США). С 2003 года группа является владельцем скейтборд-конкурса… Читать полностью... Millencolin – панк-рок группа, созданная в октябре 1992 года Эриком Олссоном, Матиасом Фермом и Николой Саркевичем в Эребру, Швеция. Фредерик Ларзон присоединился к группе в начале 1993 года, и с тех пор состав не менялся. Millencolin, из-за их пристрастия к скейтбордингу, происходит от слова "меланхоли" – трюка в скейтбординге (также известный как "сэд-эир"). Группа выпускает свои компакты на шведском лейбле Burning Heart Records (Epitaph Records в США). С 2003 года группа является владельцем скейтборд-конкурса в собственном скайт-парке в Эребру, Швеция. Он называется Millencolin Open. Как они говорят, они начинали этот ежегодный конкурс потому, что скейтбординг это то, что их объединяет, и, теперь у них есть шанс принести что-то хорошее для города и скейтбординга вообще. Millencolin, когда они только появились, пели на шведском языке. Тогда, в 1993 году, они записали на плёнку 10 песен, которую назвали "Melack". Burning Heart Records в то время обратился к Millencolin, сказав, что разыскивают для издания CD-сингла . Burning Heart Records в то время выпустили только два сингла, но они взяли свой шанс при сравнительно неизвестном лейбле. Они записали шесть песен CD-сингла ”Use Your Nose” в ноябре 1993-го, который включает в себя новые версии ”Pain” от Goofy и "Melack". Сингл был очень хорошо принят, и они начали больше играть живьём. Millencolin выпустил свой первый крупный релиз - "Tiny Tunes" – в 1994-м. На запись и микширование альбома было потрачено две недели. Из-за некоторых проблем с Warner Bros. альбом был переименован в 96-м; в настоящее время он известен как "Same Old Tunes". Millencolin продолжал гастролировать и в 1995-м выпустил свой второй полноформатный альбом "Life on a Plate". Это случилось в то время как Millencolin начал гастролировать за пределами Скандинавии. Они в конечном итоге играют в Японии, Австралии и Канаде: так их музыка достигла широкой аудитории. Проследовали второй полноформатник, потом "For Monkeys", "The Melancholy Collection" (компиляция из первых двух EP + B-side), и затем, но только в 2000 году, когда вышел "Pennybridge Pioneers", группа заняла своё прочное положение в музыкальной индустрии. Запись заняла шесть недель в студии и затем группа отправилась в своё первое крупное мировое турне - "Pennybridge Pioneers Worldwide Tour". Кроме того, песня "No Cigar" была включена в видеоигру Tony Hawk's Pro Skater 2. Millencolin написал в турне и выпустил в 2002-м году "Home From Home", в том числе хит-синглы "Kemp", "Man or Mouse" и "Battery Check". И затем снова очередной мировой тур - приобретение ими ещё большей фанатской базы по всему миру. "Kingwood", выпущенный в 2005-м году, ознаменовал возвращение группы к более быстрому "жесткому" панк-рок звучанию. Скрыть...
Популярные аккорды Millencolin:
алфавиту | просмотрам | случайно
  • Te rythmn WAY off so you'll have to listen to the song for to get it right.
    
    e-----------------------------------------------
    b-----------------------------------------------
    g---10--/11-11-11-11-11-/-10--10-10-10-10-10----
    d---x-x--x--x--x--x--x----x---x--x--x--x--x-----…
  • INTRO: 
    guitar 1 
    e|--------2------2----2---333-222----------------|
    B|---------3------3----3-------------------------|
    G|---4-4------4----------------------------------|
    D|-----------------------------------------------|
    A|-----------------------------------------------|
    E|-----------------------------------------------|…
  • INTRO:
    Main Guitar (2x):                                  Lead Guitar (2x):
    E|------------------------------------------------||--------------------------|
    B|------------------------------------------------||--------------------------|
    G|------------------------------------------------||--------------------------|
    D|-9--9-9-9-9--9--9-9-9-9--5--5-5-5-5--7--7-7-7-7-||-9---9-11-12-----12-11----|
    A|-9--9-9-9-9--9--9-9-9-9--5--5-5-5-5--7--7-7-7-7-||---9----------10-------12-|
    E|-7--7-7-7-7--7--7-7-7-7--3--3-3-3-3--5--5-5-5-5-||--------------------------|
    
    VERSE:
    Both…
  • ^=mute
    /=slide up
    
    intro
    e|----------------------------|
    B|----------------------------|
    G|--7--9--11-9--7--4/7--4/7---|
    D|--7--9--11-9--7--4/7--4/7---|x4
    A|--5--7--9--7--5--2/5--2/5---|
    E|----------------------------|
    
    verse
    e|-------------|--------------|
    B|--^----------|--^-----------|
    G|--7--^--^--^-|--7--^--^-----|
    D|--7--5--9--5-|--7--5--9--5--|x2
    A|--5--5--9--5-|--5--5--9--5--|
    E|-----3--7--3-|-----3--7--3--|
    
    chorus…
  • Intro(one guitar first, then the other one)
    e[-------------------]
    b[-------------------]
    g[---7-77-77-77------]
    d[---7-77-77-77------]
    a[---5-55-55-55------]
    E[-------------------]
    
    The verse is the same thing that the…
  • intro for guitar 1:
    
                    (all of the 1's you see are 11's close together)
    e---------2h4p2-0-------------------------                  ----------------|
    B-----------------4-----------------------…
  • Intro/verse:
    e[----------------------------]
    b[----------------------------]
    g[---55555-------------55555--]At Intro first one guitar then the other
    d[---55555-55555-33333-55555--]
    a[---33333-55555-33333-33333--]at verse…
  • LEYENDA:
    
    (PM) = Palm Mute
    (x)  = Palm Mute Breve (Palma Izquierda)
    (H)  = Hold
    (s)  = Vibratos
    (b)  = Bend
    (TP) = Traste Pick  (Gancho)
    () = Harmonic Natural
    
    ORDEN:
    
    ( Siga la secuencia del tablero; еsтбn ordenados como…
  • Intro: Guitar 1
    (Mr clean tells me.....)
    e[------------------------------------------------------]
    b[------------------------------------------------------]
    g[------------------------------------------------2-----]
    d[---4444444444444-66-7777777777777-------------5-2-----]Heavy…
  • INTRO
    e|--------------------------------------------------------------------|
    B|--------------------------------------------------------------------|
    G|------9--7-7-7-7--4--6-6--4--6-6-6-6--4-4----x2---------------------|
    D|-7-7--9--7-7-7-7--4--6-6--4--4-4-4-4--2-2---------------------------|
    A|-7-7--7--5-5-5-5--2--4-4--2-----------------------------------------|
    E|-5-5----------------------------------------------------------------|
    
    VERSE…
  • Riff 1
    |---------------------------------------------------|
    |*-------------------------------------------------*|
    |*-4--4--4--4-4-4-4-4--4-4-4-2-2-2-2/7--7-7--7-7-7-*|
    |---------------------------------------------------|
    
    |---------------------------------|
    |---------------------------------|
    |---------------------------------|
    |-5-5-5-5-5-5-5-5-7-7-7-7-7-7-7-7-|…
  • > means 8x, r means let ring... 
    
    Intro 
    G----------- 
    D----------- 
    A-99---77--- 
    E----------- 
    
    Verse 
    G--------------------------------------- 
    D--976-679--976-679--976-679------------ 
    A-----7--------7--------7------67976----…
  • verse:
    G-|-------------------------------------------------------------|
    D-|-------------------------------------------------------------|
    A-|------------------5-5-5-5-------------------5-5-5-5----------|
    E-|-7-7-7-7-3-3-3-3------------7-7-7-7-3-3-3-3------------------|
    
    chorus:
    G-|-----------------------------------------------------------
    D-|-----------------------------------------------------------
    A-|------------------7-7-7-7----------------------------------
    E-|-3-3-3-3-5-5-5-5------------7-7-7-7-3-3-3-3-5-5-5-5-7-7-7-7
    
    G-|------------------------------------------------------------|
    D-|------------------------------------------------------------|
    A-|------------------7-7-7-7-----------------------------------|
    E-|-3-3-3-3-5-5-5-5-----------7-7-7-7-3-3-3-3-5-5-5-5--7-7-7-7-|
    
    bridge
    G-|-----------------------------------------------------------------------
    D-|-----------------------------------------------------------------------
    A-|-----------------------------------7-7-7-7-7-7-7-7---------------------
    E-|-3-3-3-3-5-5-5-5-7-7-7-7-7-7-7-7-----------------------3-3-3-3-5-5-5-5-
    
    G-|-----------------------------------------------------------------------
    D-|-----------------------------------------------------------------------
    A-|----------------------------------7-7-7-7-7-7-7-7----------------------
    E-|-7-7-7-7-7-7-7-7-7-7-7-7-7-7-7-7-----------------------3-3-3-3-5-5-5-5-
    
    G-|---------|
    D-|---------|
    A-|---------|
    E-|-5-5-5-5-|…
  • intro                                           x2
    G:---------------------------------------------------------------
    D:---------------------------------------------------------------
    A:--5>--------2>----------------------------------------------
    E:--------2>--------5>----------------------------------------
    
    verse…
  • tuning :e a d g b e
    
    intro
    
    e|----xx-77-xx-77-xx-745---7---7-7-
    a|-77-xx-99-xx-99-xx-967-4-9-4-9497
    d|-99-xx-99-xx-99-xx-967-6-9-6-9699
    g|-99--------------------6---6—-6-9
    b|---------------------------------
    e|---------------------------------
    
    verse
    
    e|----xx-77-xx-77-xx-745---7---7-7-
    a|-77-xx-99-xx-99-xx-967-4-9-4-9497
    d|-99-xx-99-xx-99-xx-967-6-9-6-9699
    g|-99--------------------6---6—-6-9
    b|---------------------------------
    e|---------------------------------
    
    e|----xx-77-xx-77-xx-745---7---7-7-
    a|-77-xx-99-xx-99-xx-967-4-9-4-9497
    d|-99-xx-99-xx-99-xx-967-6-9-6-9699
    g|-99--------------------6---6—-6-9
    b|---------------------------------
    e|---------------------------------
    
    e|----xx-77-xx-77-xx-55-xx-55-xx-55-xx-55--
    a|-77-xx-99-xx-99-xx-77-xx-77-xx-77-xx-77--
    d|-99-xx-99-xx-99-xx-77-xx-77-xx-77-xx-77--
    g|-99--------------------------------------
    b|-----------------------------------------
    e|-----------------------------------------
    
    
    e|----xx-77-xx-77-xx-745---7---7-7-
    a|-77-xx-99-xx-99-xx-967-4-9-4-9497
    d|-99-xx-99-xx-99-xx-967-6-9-6-9699
    g|-99--------------------6---6—-6-9
    b|---------------------------------
    e|---------------------------------
    chorus
    
    e|--------7------5-------------7------5-------------7------5-----
    a|7-------9-(x8)-7-(x8)7-------9-(x8)-7-(x8)7-------9-(x8)-7-(x8)
    d|9-(x16)-9------7-----9-(x16)-9------7-----9-(x16)-9------7-----
    g|9--------------------9--------------------9--------------------
    b|---------------------------------------------------------------
    e|---------------------------------------------------------------
    
    e|--------7------5-
    a|7-------9-(x8)-7-
    d|9-(x16)-9------7-
    g|9----------------
    b|-----------------
    e|-----------------
    
    verse…
  • |----------3-3---------3-3--------7-7---5-5--3-3-3-3--
     |----5-5---5-5---5-5---5-5--------9-9---7-7--5-5-5-5--
     |----7-7---------7-7----------------------------------
     |-----------------------------------------------------…
  • > means 8x, r means let ring... 
    
    Intro 
    G------------------------------------------------- 
    D------------------------------------------------- 
    A------------------------------------------------- 
    E-7>>>>---7r---5r---3r---5r---7r---5r---3r---5r---…
  • Intro:
    
    e[--------------]
    b[--------------]
    g[--7777777777--]
    d[--7777777777--]
    a[--5555555555--]
    E[--------------]
    
    Pre Verse:
    
    Yeah Yeah Yeah Yeah!......
    
    e[-----------------------]
    b[-----------------------]
    g[----777-555------------]…
  • Intro-
    Lead	B|-5-5-5-4-4-4-4-4-5-5-5-4-4-4-5-4x2
    	G|-6-6-6-6-6-6-6-6-6-6-6-6-6-6-6-6
    	 |
    Rhythm	G|-6-6-6-6-9-9-9-9----------------
    	D|-6-6-6-6-9-9-9-9-7-7-7-7-4-4-4-4
    	A|-4-4-4-4-7-7-7-7-7-7-7-7-4-4-4-4
    	E|-----------------5-5-5-5-2-2-2-2…
  • RIFF A (Also known as Intro)
    e|--------------------|
    b|--------------------|
    g|--------------------|
    d|--7--------4--------|
    a|--5--7--5--2--5--7--|
    E|-----5--3-----3--5--|
    
    RIFF B (Also known as Verse)
    e|--------------------------------|
    b|--------------------------------|
    g|--------------------------------|
    d|--7(x8)-------------4(4)-2(x4)--|
    a|--5-----7(x8)-5(x8)-2----0------|
    E|--------5-----3-----------------|
    
    RIFF…
  • Intro
    e--------------|
    b--------------|
    g--------------|
    d--------------|
    a--9999999999--|
    e--7777777777--|
    
    Verse:
    e---------------------------|
    b---------------------------|
    g---------------------------|
    d--------------99999--------|
    a--99999999999-77777-66-44--|
    e--77777777777-------44-22--|
    
    Chorus:
    e-----------------------------------------------------------|
    b-----------------------------------------------------------|
    g-----------------------------------------------------------|
    d-----------------------------------------------------------|
    a--------11-9-9-9-9-9-9-11-9-9-7-7-7-7-7-9-6-6-6-6-6-6-6-6--|
    e--7-7-7----------------------------------------------------|
    
    e---------------------------------------------------|
    b---------------------------------------------------|
    g---------------------------------------------------|
    d---------------------------------------------------|
    a--------11-13-13-13-13-13-13-13-13-13-----9-7-6----|
    e--7-7-7-------------------------------7-7-------7--|
    
    Bridge:
    e-------------------|
    b-------------------|
    g-------------------|
    d----------8-8-9-9--|
    a--6-4-9-9-6-6-7-7--|
    e--4-2-7-7----------|
    
    So…
  • intro:
    
    g - - - - - - - - - - - - - - - - - - - -
    d - - - - - - - - - - - - - - - - - - - -
    a - - - - - 7 7 7 7 7 9 9 9 9 9 5 5 5 5 5 
    e 5 5 5 5 5 - - - - - - - - - - - - - - -
    
    2 TIME
    first riff:
    g - - - - - - - - - - -…
  • Intro:
    e|---------------------------------------------------------------------------
    B|---------------------------------------------------------------------------
    G|---------------------------------------------------------------------------
    D|-5/7-7-7-7-7-7-7-7-7-7-7-7/9-9-9/10-10-10-10-10-10-10-10-10-10-10-10-109-9
    A|-5/7-7-7-7-7-7-7-7-7-7-7-7/9-9-9/10-10-10-10-10-10-10-10-10-10-10-10-109-9
    E|-3/5-5-5-5-5-5-5-5-5-5-5-5/7-7-7/8---8--8--8--8--8--8--8--8--8--8--8--87-7…
  • Intro riff
                                                              
    e-|----------------------------------------------------------------|
    B-|----------------------------------------------------------------|
    G-|------------------7-7----7-9-7----------9-7-7-7----7-9-7----7-9-|
    D-|-7-7-7-7-10-10-10-----10-------7--7-7-7---------10-------10-----|
    A-|----------------------------------------------------------------|
    E-|----------------------------------------------------------------|…
  • b=bend
    
    VERSE
    e|--------------------------------------------------------------------|
    B|--------------------------------------------------------------------|
    G|-7-7-7-7-7-7-7-7-7-7-7-7-------------5-5-5-5-----------5-5-5-5------|
    D|-7-7-7-7-7-7-7-7-7-7-7-7-X2-7-7-7-7--5-5-5-5--3-3-3-3--5-5-5-5—X3---|
    A|-5-5-5-5-5-5-5-5-5-5-5-5----7-7-7-7--3-3-3-3--3-3-3-3--3-3-3-3------|
    E|----------------------------5-5-5-5-----------1-1-1-1---------------|
    
    e|--------------------------------------------------------------------|
    B|--------------------------------------------------------------------|
    G|----------5-5-5-5---------------------------------------------------|
    D|-7-7-7-7--5-5-5-5--3-3-3-3-3-3-3-3--5-5-5-5—-3-3-3-3----------------|
    A|-7-7-7-7--3-3-3-3--3-3-3-3-3-3-3-3--5-5-5-5--3-3-3-3----------------|
    E|-5-5-5-5-----------1-1-1-1-1-1-1-1--3-3-3-3--1-1-1-1----------------|
    
    CHORUS
    e|--------------------------------------------------------------------|
    B|--------------------------------------------------------------------|
    G|---------------------------------------------------7-7-7-7-7-7-7-7--|
    D|-7-7-7-7-7-7-7-7--3-3-3-3-3-3-3-3--5-5-5-5-5-5-5-5-7-7-7-7-7-7-7-7-7|
    A|-7-7-7-7-7-7-7-7--3-3-3-3-3-3-3-3--5-5-5-5-5-5-5-5-5-5-5-5-5-5-5-5-7|
    E|-5-5-5-5-5-5-5-5--1-1-1-1-1-1-1-1--3-3-3-3-3-3-3-3-----------------5|
    
    VERSE…
  • Intro end both on high e
    Guitar 1 (2times)      Guitar 2 (8times)
    e|-------------|    e|--------------------|---|
    B|-------------|    B|--------------------|---|
    G|-----5--7--4-|    G|--------------------|-9-|…
  • --------------------------------------------------------------------
    --------------------------------------------------------------------
    -------------------2-2-2-2-------4-4-4-4---------2-2-2-2------------
    -4-4-4--2-2-2-2-2--2-2-2-2--2-2--4-4-4-4--2-2-2--2-2-2-2--2---------
    -4-4-4--2-2-2-2-2--0-0-0-0--2-2--2-2-2-2--2-2-2--0-0-0-0--2---------
    -2-2-2--0-0-0-0-0-----------0-0-----------0-0-0-----------0---------
    
    Repeat…
  • intro and verses:
    g-----------------------------
    d-------454------454----------
    a--55555---2220---------------
    e-----------------------------
    
    chorus:
    g-----------------------------
    d-----------------------------
    a----------2>------5----------
    e--3>-5>-2>--3>-5>------------
    
    or…
  • Tune your guitar down a half tone:Eb Ab Db Gb Bb eb
    *=palm mute
    h=hammer
    p=pull-off
    7b(9)7=bend one whole tone to 9 then back down to 7
    
    Chords Used
    
       B5  E5  G#5 C#5 Db5 Eii F#ii
    eb:---|---|---|---|---|---|----|
    Bb:---|---|---|---|---|---|----|
    Gb:-4-|---|---|-6-|-3-|-9-|-11-|
    Db:-4-|-2-|-6-|-6-|-1-|-9-|-11-|
    Ab:-2-|-2-|-6-|-4-|-1-|-7-|-9--|
    Eb:---|-0-|-4-|---|---|---|----|
    
    Verse:…
  • intro:
     3X
    g----------------
    d----------------
    a----5--55555--
    e------5----------
    
    then
    g--------------------------------
    d---------------------------------
    a--333000---55555---------------
    e-------------------------------
    
    Verse:
    2X:
    g------------------------------
    d------------------------------
    a----55------------------------
    e--------3333---55--3333-------
    
    then
    g--------|------------------------------|----------------
    d--------|------------------------------|---------------
    a-55555555-2X--|--5-----12/555533333---|---5555555----
    e--------|------------------------------|---------------
    
    chorus:…
  • -----5-------5-------5-----7-----6-----5--------------------------------------|
    --------7-------7-----7------7-----7-----7------------------------------------|
    ----------7-------7-----7------7-----7-----7----------------------------------|
    ------------------------------------------------------------------------------|
    ------------------------------------------------------------------------------|
    ------------------------------------------------------------------------------|…
  • Riff 1
    G|---------------------------------------------------------------|
    D|---------------------------------------------------------------|    (2x)
    A|-5-5-5-5-5-5-----------5-5-5-5-5-5-3-0-------------------------|
    E|-------------3-3-3-3-5-----------------------------------------|
    
    Riff…
  • intro:
    e|-5-5-8-8-6-6---8|x4
    B|-5-5-8-8-6-6---8|
    G|-6-6-9-9-7-7---9|
    D|----------------|
    A|----------------|
    E|----------------|
    
    
    verse:
    e|-5-5-8-8-6-6---8|
    B|-5-5-8-8-6-6---8|
    G|-6-6-9-9-7-7---9|
    D|----------------|
    A|----------------|
    E|----------------|
    
    
    
    
    chorus:
    e|---------------------------------------------------------------|
    B|---------------------------------------------------------------|
    G|-7-7-7-7-7-7-7-7---------5-5-5-5--7-7-7-7-7-7-7---------5-5-5-5|
    D|-7-7-7-7-7-7-7-7-3-3-3-3-5-5-5-5--7-7-7-7-7-7-7-3-3-3-3-5-5-5-5|
    A|-5-5-5-5-5-5-5-5-3-3-3-3-3-3-3-3--5-5-5-5-5-5-5-3-3-3-3-3-3-3-3|
    E|-----------------1-1-1-1------------------------1-1-1-1--------|
    
    
    e|------------------------------------------------------------------------|
    B|------------------------------------------------------------------------|
    G|---------5-5-5-5---------5-5-5-5---------5-5-5-5-------------5-5-5-5-5-5|
    D|-5-5-5-5-5-5-5-5-3-3-3-3-5-5-5-5-5-5-5-5-5-5-5-5-3-3-3-3-3-3-5-5-5-5-5-5|
    A|-5-5-5-5-3-3-3-3-3-3-3-3-3-3-3-3-5-5-5-5-3-3-3-3-3-3-3-3-3-3-3-3-3-3-3-3|
    E|-3-3-3-3---------1-1-1-1---------3-3-3-3---------1-1-1-1-1-1------------|
    
    
    verse:
    e|-5-5-8-8-6-6---8|
    B|-5-5-8-8-6-6---8|
    G|-6-6-9-9-7-7---9|
    D|----------------|
    A|----------------|
    E|----------------|
    
    
    chorus:
    e|---------------------------------------------------------------|
    B|---------------------------------------------------------------|
    G|-7-7-7-7-7-7-7-7---------5-5-5-5--7-7-7-7-7-7-7---------5-5-5-5|
    D|-7-7-7-7-7-7-7-7-3-3-3-3-5-5-5-5--7-7-7-7-7-7-7-3-3-3-3-5-5-5-5|
    A|-5-5-5-5-5-5-5-5-3-3-3-3-3-3-3-3--5-5-5-5-5-5-5-3-3-3-3-3-3-3-3|
    E|-----------------1-1-1-1------------------------1-1-1-1--------|
    
    
    e|------------------------------------------------------------------------|
    B|------------------------------------------------------------------------|
    G|---------5-5-5-5---------5-5-5-5---------5-5-5-5-------------5-5-5-5-5-5|
    D|-5-5-5-5-5-5-5-5-3-3-3-3-5-5-5-5-5-5-5-5-5-5-5-5-3-3-3-3-3-3-5-5-5-5-5-5|
    A|-5-5-5-5-3-3-3-3-3-3-3-3-3-3-3-3-5-5-5-5-3-3-3-3-3-3-3-3-3-3-3-3-3-3-3-3|
    E|-3-3-3-3---------1-1-1-1---------3-3-3-3---------1-1-1-1-1-1------------|
    
    
    
    solo:
    e|------------1411------------12----1414-141414141414---|
    B|-1212-1212------11-----1012-12---------141414141414-14|
    G|-1313-1313---------1012-------------------------------|
    D|-------------------------------12---------------------|
    A|------------------------------------------------------|
    E|------------------------------------------------------|
    
    
    
    chorus:
    e|---------------------------------------------------------------|
    B|---------------------------------------------------------------|
    G|-7-7-7-7-7-7-7-7---------5-5-5-5--7-7-7-7-7-7-7---------5-5-5-5|
    D|-7-7-7-7-7-7-7-7-3-3-3-3-5-5-5-5--7-7-7-7-7-7-7-3-3-3-3-5-5-5-5|
    A|-5-5-5-5-5-5-5-5-3-3-3-3-3-3-3-3--5-5-5-5-5-5-5-3-3-3-3-3-3-3-3|
    E|-----------------1-1-1-1------------------------1-1-1-1--------|
    
    
    e|--------------------------------------------------------------------------|
    B|--------------------------------------------------------------------------|
    G|---------5-5-5-5---------5-5-5-5---------5-5-5-5-------------5-5-5-5-5-5-7|
    D|-5-5-5-5-5-5-5-5-3-3-3-3-5-5-5-5-5-5-5-5-5-5-5-5-3-3-3-3-3-3-5-5-5-5-5-5-7|
    A|-5-5-5-5-3-3-3-3-3-3-3-3-3-3-3-3-5-5-5-5-3-3-3-3-3-3-3-3-3-3-3-3-3-3-3-3-5|
    E|-3-3-3-3---------1-1-1-1---------3-3-3-3---------1-1-1-1-1-1--------------|
    
    
    =============================================================================…
  • INTRO GUITAR 1
    e|-----------------------5-5------------------------------------5-5---|
    B|-7-7^5---5--7------7^5-----5—7^5---5---7-7^5-----5--7-----7^5-------|
    G|-------7------X2-----------------7------------7-------x2------------|
    D|--------------------------------------------------------------------|
    A|--------------------------------------------------------------------|
    E|--------------------------------------------------------------------|
    
    e|--------------5-5--5-5-5--------------------------------------------|
    B|-5—7^5----5---------------------------------------------------------|
    G|--------7---7-------------------------------------------------------|
    D|--------------------------------------------------------------------|
    A|--------------------------------------------------------------------|
    E|--------------------------------------------------------------------|
    
    INTRO…
  • Tuning:regular
    
    Verse 1
    e|---------------------------------------------------------------------------|
    B|---------------------------------------------------------------------------|
    G|---------------------------------------------------------------------------|
    D|---7--x8-------------------------4--x8-------------------------------------|
    A|---5-----9--x8---5--x4---7--x4---2-----------------------------------------|
    E|---------7-------3-------5-------------------------------------------------|
    
    Chorus
    e|---------------------------------------------------------------------------|
    B|---------------------------------------------------------------------------|
    G|---------------------------------------------------------------------------|
    D|------------------7--x8---4--x8---9--x5------------------------------------|
    A|----5--x4-2--x4---5-------2-------7----------------------------------------|
    E|----3-----0----------------------------------------------------------------|
    
    Bridge-I'm…
  • Intro
    
    Guitar 1  (x2 clean, with effects then x4 heavy distortion)
    
    
    E|---------------------------------------------------|
    B|---------------------------------------------------|
    G|---------------------------------------------------|
    D|--4-4-4-4-2-2-2-2-9-9-9-7-7-7-9-7------------------|
    A|--4-4-4-4-2-2-2-2-9-9-9-7-7-7-9-7------------------|
    D|--4-4-4-4-2-2-2-2-9-9-9-7-7-7-9-7------------------|
    
    
    Guitar…
  • Intro
    G ---------------------------
    D ---------------------------
    A --5---33-------33----------
    E -----------1---------------
    
    Verse
    G ---------------------------
    D ------5--------------------
    A -5787--875--575-8----------
    E…
  • INTRO
    
    G:---------------------------------------------------------------
    D:-----4---------------------------------------------------------
    A:-2-2---2-------5-----------------------------------------------
    E:-----------3-3---3---------------------------------------------
    
    VERSE
    
    G:---------------------------------------------------------------
    D:---------------------------------------------------------------
    A:-2222--------2222--------2222--5555----------------------------
    E:-------3333--------3333--------------5555--3333----------------
    
    CHORUS
    
    G:---------------------------------------------------------------
    D:---------------------------------------------------------------
    A:-2222--------5555----------------------------------------------
    E:-------3333-------5555-----------------------------------------
    
    OUTRO
    
    G:---------------------------------------------------------------
    D:-----4--------7------------------------------------------------
    A:-2-2---2--5-5---5------7--------5------------------------------
    E:-------------------5-5---5--3-3---3----------------------------…
  • G-|------------------------------------------------------------------|
    D-|------------------------------------------------------------------|
    A-|------------------------------------------------------------------|
    E-|---7-7-7-7-3-3-3-3-3-3-3-3-5-5-5-5-5-5-5-5---------|
    
    chorus:
    G-|-----------------------------------------------------------------
    D-|-----------------------------------------------------------------
    A-|----------------------------------5-5-5-5-5-5-5-5----------------------
    E-|-7-7-7-7-7-7-7-7-3-3-3-3-3-3-3-3-----------------------5-5-5-5-5-5-5-5-…
  • INTRO:
    
    G:---------------------------------------------------------------
    D:---------------------------------------------------------------
    A:-0---3-----------0---3-----------------------------------------
    E:---------1---3-----------1---3---------------------------------
    
    chorus1
    
    G:---------------------------------------------------------------
    D:-----------33333--55555--00000----------------------
    A:-00000---------------------------------00000------------
    E:---------------------------------------------------------------
    
    G:---------------------------------------------------------------
    D:------------33333---55555---000000000000000-
    A:--00000----------------------------------------------------
    E:---------------------------------------------------------------
    
    CHORUS2
    
    G:---------------------------------------------------------------
    D:---------------------------------------------------------------
    A:-00000--33333--55555--00000---------------------
    E:---------------------------------------------------------------
    
    VERSE2
    
    G:---------------------------------------------------------------
    D:---------------------------------------------------------------
    A:-000--111--------------------------------------------------
    E:----------------33333333---------------------------------…
  • Standard Tuning.
    
    Intro Part 1  (quickly alternate strum the first chord 24 times, both guitars)
    Guitar 1
    e||------------------------------------------|
    B||------------------------------------------|
    G||---11-------------------------------------|
    D||---11-------------------------------------|
    A||----9----5--------------------------------|
    E||------------4--5--4--2--0-----------------|…
  • Intro
    
    e|--------------------------------------|
    B|--------------------------------------|
    G|--------------------------------------|
    D|--------------------------------------|
    A|0-0-3-2-0-----3-2-0-----3-2-0-3-0-2-0-|
    E|----------1-1-------3-3---------------|
    
    Verse
    
    e|--------------------|
    B|--------------------|
    G|--------------------|
    D|2-2---------5-5-4-4-|
    A|0-0-3-3-5-5-3-3-2-2-|
    E|----1-1-3-3---------|
    
    And…
  • Tuning: Standard (E A D G B E)
    
    / - Slide up
    p - Pull off
    x - Mute string
     - Slide down
    ^ - Bend string
    () - Play while bending string
    
    
    
    Intro - Guitar 1
    |---------------------------------------|
    |----9------------10-10-----------------|
    |-/9---9p7-5-7-5--------12-9-9-12--12p9-|x4
    |---------------------------------------|
    |---------------------------------------|
    |---------------------------------------|
    
    
    Intro…
  • :=let ring
    ]=pickslide
    /=slide to
    
    Intro
    e|---------------------|
    B|---------------------|
    G|---5---5-5----4---4-4|
    D|7-7-7-7-7--5-5-5-5-5-|
    A|---------------------|
    E|---------------------|
          X4 (palm mute)
    
    Pre-verse
    e|----------------------|--|
    B|----------------------|--|
    G|--------5----9-9------|9-|
    D|7-7-9-10--------9-10-7|-7|
    A|----------------------|--|
    E|----------------------|--|…
  • Intro 
    G--5-0----- 
    D------3--- 
    A---------- 
    E---------- 
    
    G----5-----7-----10----5--- 
    D-------------------------- 
    A--3-----5-----8-----3----- 5x 
    E-------------------------- 
    
    Chorus 
    G------------------------- 
    D-------------------------…
  • > means 8x, r means let ring... 
    
    Intro 
    G--77-76--- 
    D-5--5----- 
    A---------- 
    E---------- 
    
    Verse 
    G-----------------7--- 
    D----------5555-7----- 
    A-2222-5-0------------ 
    E--------------------- 
    
    Chorus   > means 8x 
    G------------------|----------…
  • guitar intro
    
    then                                            x2
    G:---------------------------------------------------------------
    D:---------------------------------------------------------------
    A:-3>--6>-------------------3>-------------------------------
    E:------------4>--6>--3>------------------------------------
    
    verse…
  • Tuning: Standard (E A D G B E)
    
    
    x - Mute string
    PM - Palm mute
     - Slide down
    
    
    Intro - Guitar 1
    |-------------------------------------------------------|
    |-------------------------------------------------------|
    |-1-1-1--1-1-1--1-1-1--1-1-1-3-3-3--3-3-3--3-3-3--1-3-2-|…
  • Intro
    --------------------------------------------------------
    --------------------------------------------------------
    -555-555-555-555----------------------------------------
    -555-555-555-555--55-5555-5555-55-5-5-5-----------------
    -333-333-333-333--55-5555-5555-55-5-5-5-----------------
    ------------------33-3333-3333-33-3-3-3-----------------
    
    --------------------------------------------------------
    --------------------------------------------------------
    -5-5-5-5----------------5-5--9-9-------------5-----5----
    -5-5-5-5--3-3--5-5------5-5--9-9--3-3--5-5---5-333-5----
    -3-3-3-3--3-3--5-5-X2---3-3--7-7--3-3--5-5---3-333-3----
    ----------1-1--3-3----------------1-1--3-3-----111------
    
    Verse
    --------------------------------------------------------
    --------------------------------------------------------
    --------------5-5-------5-5-----------------------------
    -7-----3------5-5--333--5-5--333--------X3---------------
    -7-X4--3-X4---3-3--333--3-3--333-----------------------
    -5-----1-----------111-------111------------------------
    
    --------------------------------------------------------
    --------------------------------------------------------
    --------------------------------------------------------
    -7-----3-----5555-5555-5555-5-5-5-----------------------
    -7-X4--3-X4--5555-5555-5555-5-5-5-----------------------
    -5-----1-----3333-3333-3333-3-3-3-----------------------
    Chorus
    --------------------------------------------------------
    --------------------------------------------------------
    -5-5-5-5----------------5-5--9-9-------------5-----5----
    -5-5-5-5--3-3--5-5------5-5--9-9--3-3--5-5---5-333-5----
    -3-3-3-3--3-3--5-5-X2---3-3--7-7--3-3--5-5---3-333-3----
    ----------1-1--3-3----------------1-1--3-3-----111------
    
    --------------------------------------------------------
    --------------------------------------------------------
    --------------------------------------------------------
    -5-----5-3-----3-5-----5-3----7----5----3---------------
    -5-----5-3-----3-5-----5-3----7-X4-5-X4-3----X2---------
    -3-----3-1-----1-3-----3-1----5----3----1---------------
    Solo
    --------------------------------------------------------
    --------------------------------------------------------
    -/12-12-12-10-9/14-14-12-10-9/12-12-12-10-9/14-14-12-10-
    --------------------------------------------------------
    --------------------------------------------------------
    --------------------------------------------------------
    
    --------------------------------------------------------
    --------------------------------------------------------
    9/12-12-12-12-12-12-14-14-14-14-16-16-16-16-17----------
    --------------------------------------------------------
    --------------------------------------------------------
    --------------------------------------------------------
    
    --------------------------------------------------------
    --------------------------------------------------------
    --------------------------------------------------------
    -----7----5----3----------------------------------------
    -----7-X4-5-X4-3----X2----------------------------------
    -----5----3----1----------------------------------------
    
    --------------------------------------------------------
    --------------------------------------------------------
    -5-5-5-5----------------5-5--9-9-------------5-------5--
    -5-5-5-5--3-3--5-5------5-5--9-9--3-3--5-5---5-3-3-3-5--
    -3-3-3-3--3-3--5-5-X2---3-3--7-7--3-3--5-5---3-3-3-3-3--
    ----------1-1--3-3----------------1-1--3-3-----1-1-1----…
  • Verse:     p.m. listen to the Cd for timing 
    e|---------------------------------------------------------------------------|
    B|---------------------------------------------------------------------------|
    G|----7-7-------------5-5-5-5-4-4-------7-7-7--------------------------------|
    D|----7-7---5-5-5-5-5-5-5-5-5-4-4-7-7-7-7-7-7-5-5-5--------------------------|
    A|----5-5---5-5-5-5-5-3-3-3-3-2-2-7-7-7-5-5-5-5-5-5--------------------------|
    E|---------…
  • x - Mute string
    PM - Palm mute
    
    Tuning: Standard (E A D G B E)
    
    Intro
    |-------------------|
    |-------------------|
    |-7-x---------------| x1
    |-7-x-5-5-7---x-x-x-|
    |-5-x-5-5-7---x-x-x-|
    |-----3-3-5---x-x-x-|
    
    Verse
    |------------------------|
    |------------------------|
    |-7-7-x-----x-7-7-7--7-7-|…
  • ^=palm-muted
    
    Intro x2
    e|--------------------------------------------------------------------------------|
    B|--------------------------------------------------------------------------------|
    G|--14-14-14------11-12-11-12-11-12-------11-12-11-12-11-12------11-12-11-12------|
    D|--14-14-14--9---11-12-11-12-11-12--12---11-12-11-12-11-12--9---11-12-11-12--12--|
    A|--12-12-12--9---9--10-9--10-9--10--12---9--10-9--10-9--10--9---9--10-9--10--12--|
    E|------------7----------------------10----------------------7----------------10--|
    
    Verse…
  • Intro:
    G:---------------------------------------------------------------
    D:-7-7--7-7--7-7--7-----------------------------------------------------
    A:-----------------7-5-4--------------------------------------------
    E:---------------------------------------------------------------
    
    Verse:
    G:---------------------------------------------------------------
    D:--------9-9-----------------x2-------------------------------------
    A:--4-4--7-7---0-2-4-5-4-2--------------------------------------------
    E:-5-5--------3-----------4-----------------------------------------
    
    Instir:
    G:---------------------------7-6-5----------------------------------
    D:-5-7-7-7-7-7--5-7-7-7-7-7-------5------------------------------------------
    A:---------------------------------------------------------------
    E:---------------------------------------------------------------
    
    
    G:---------------------------12-14-14-14-14-14----14-14-14-14-14----------------------
    D:-5-7-7-7-7-7--5-7-7-7-7-7--------------------12-----------------------------
    A:---------------------------------------------------------------
    E:---------------------------------------------------------------
    
    Chorus
    G:-----------------------7-7-7-7-7-7-7-7-7-7-7------------------------------
    D:-0-0-0-0-0-0-0-0-0-0-0----------------------------------------------------
    A:---------------------------------------------------------------
    E:---------------------------------------------------------------
    
    
    G:---------------------------------------------------------------
    D:---------------------------------------------------------------
    A:-----------------------5-5-5-5-5-5-5-5-5-5-5------------------------------
    E:-3-3-3-3-3-3-3-3-3-3-3----------------------------------------------------…
  • haven't got the solo thing...only the chords and they are very easy! only three of them, and some muting sometimes
    a short song...
    e-|-------------------------------------------------|
    B-|------------------------------------------------|
    G-|-5-3----------------------------------------------|
    D-|-5-3-3---------------------------------------------|
    A-|-3-1-3--------------------------------------------|…
  • Intro A-acoustic(guitar 1)
    e---------------------------I------------------------------------
    B---------------------------I------------------------------------
    G---------------------------I-*or*-------------------------------
    D---------------------------I-------2-------------5-4------------
    A---7------------------10-9-I-----0--3-3-3/5-5-5-5---------------
    E-5---8-8-8/10-10-10-10-----I------------------------------------
    
    Intro…
  • intro
    G:---------------------------------------------------------------
    D:---------------------------------------------------------------
    A:-------------------------------------------------5-5-5-5--7-7-7-7--5-5-5-5-
    E:-7-7-7-7--5-5-5-5--3-3-3-3--5-5-5-5-------------------------------------
    repeat
    
    verse
    G:---------------------------------------------------------------
    D:---------------------------------------------------------------
    A:------3>--5-7-7-5--------2>---5-7-7-5-----------------
    E:-3>-------------------3>------------------------------------
    repeat
    
    chorus
    G:---------------------------------------------------------------
    D:---------------------------------------------------------------
    A:-2>--5>--10>--9>--7>--5>--2>--5>-----------------
    E:------------------------------------------------3>------------
    
    verse…
  • Verse Riff(not played first verse)
    A------4444----7777
    E--0000----5555----
    
    Chorus and Bridge
    A--444444444---------777777777
    E-----------555555555---------
    
    
    
  • Intro:
    G-----------------------------------------
    D-----------------------------------------
    A-----------------------------------------
    E---777-5-7----555-3-5--------------------
    
    
    
    Riff 1:  (that's the hey and hoo thing)
    G-----------------------------------------
    D-----------------------------------------
    A-----4-5-7---2-3-------------------------
    E---5-------3-----------------------------…
  • *=strum listen to the song to find the rhythm
    
    VERSE:
    
    G/----------------------------------------
    D/------45754------------45754------------
    A/---55------5--2---4--55-----5-4-2-------
    E/------------33--55-----------5-3--1*---3*
    
    Pre-Chorus:
    
    G/------------------------------
    D/------------------------------
    A/---------------11111111--33333
    E/11111111--33333---------------
    
    Chorus:…
  • *=let ring
    /=slide up
    =slide down
    p=palm mute
    
    
    intro
    guitar 1
    e]-----2-x12--5-x4--3-x8--2-2-2-3-3-0-0-0---2-x12--5x4--3x8--2-2-2-2-(1st time only)
    B]-----0------3-----3-----3-3-3-3-3-3-3-3---0------3----3----3-3-3-3----------------
    G]----------------------------------------------------------------------------------
    D]----------------------------------------------------------------------------------
    A]----------------------------------------------------------------------------------
    E]----------------------------------------------------------------------------------
    
    guitar2(you…
  • INTRO:
    
    G:----------------------------------|----------------------------
    D:----------------------------------|----------------------------
    A:-2222--5555--------2222- |------2--------------------
    E:-------------------5--3---------|---5------------------------
    
    
    G:---------------------------------------------------------------
    D:---------------------------------------------------------------
    A:-2222--5555--------2222-------------------------------
    E:------------------5555--------------------------------------
    
    VERSE…
  • Chords used
    
       A  D  E  A*
    e---------------------------
    B---------------------------
    G-----------9---------------
    D-----7--9--7---------------
    A--7--5--7------------------
    E--5------------------------
    
    
    [INTRO]:
    A A A A…
  • Intro Riff (on 8th time play this just before verse) 
    e------------------------------| ------------------------------------------- 
    B------------------------------| ------------------------------------------- 
    G--16-16-16-16-12-14-12-12-12--|…
  • Intro/Chorus
    Guitar 1
    e------------------------------x2--------------------------------|-----------------
    B----------------------------------------------------------------|-----------------
    G-11--11-12-14-12-11--11-12-14-12-11-11-12-11-9-7-7----9--11-9-7-|-11----12--11----
    D----------------------------------------------------------------|-----------------
    A--9---9-10-12-10--9---9-10-12-10--9--9-10--9-7-5-5----7---9-7-5-|--9----10---9----
    E----------------------------------------------------------------|-----------------
    Guitar…
Наверх