Аккорды «Mindless Self Indulgence»

Mindless Self Indulgence
Mindless Self Indulgence (сокращенно — MSI) — американская группа альтернативного рока, образовавшаяся в Нью-Йорке в 1997 году и использующая в своей музыке элементы панка, металла, индастриал и электроники. Три первых альбома обеспечили квартету культовую известность; в числе тех, кто высоко отзывался о нём, были участники System of a Down, Korn, Staind, Sum 41, My Chemical Romance, Rammstein, Mushroomhead. Mindless Self Indulgence образовались в 1997 году в Нью-Йорке в составе: Джеймс 'Little… Читать полностью... Mindless Self Indulgence (сокращенно — MSI) — американская группа альтернативного рока, образовавшаяся в Нью-Йорке в 1997 году и использующая в своей музыке элементы панка, металла, индастриал и электроники. Три первых альбома обеспечили квартету культовую известность; в числе тех, кто высоко отзывался о нём, были участники System of a Down, Korn, Staind, Sum 41, My Chemical Romance, Rammstein, Mushroomhead. Mindless Self Indulgence образовались в 1997 году в Нью-Йорке в составе: Джеймс 'Little Jimmy Urine' Юринджер (певец, автор песен), Стив Монтано (известный как Steve, Righ, гитара), Vanessa Y.T. (бас-гитара) и Дженнифер Данн (она же — Kitty, ударные). Квартет дебютировал с альбомом Tight (все песни которого Юринджер написал на старом Atari PC) и обратил на себя внимание экспрессивными концертными выступлениями, получив приглашения в туры Rammstein и Insane Clown Posse. Тексты группы напомнили критикам аналогичные «ранты» Beastie Boys, в музыкальном отношении MSI поначалу отнесли к последователям Korn. Затем вышел альбом Frankenstein Girls Will Seem Strangely Sexy (2000): о Джимми Юрине теперь заговорили как о талантливом панк-авторе; в связи с имиджем и мировоззрением группы (в частности, идеей «ультра-секса» и сконцентрированности на «низшей из чакр») отмечались влияния Боуи и Sigue Sigue Sputnik. Пресса отмечала крайне провокационный характер концертных выступлений MSI, в ходе которых группа неизменно отвечала на любое оскорбление или брошенный предмет из зала, вызывая аудиторию на открытую конфронтацию. После выхода альбома Alienating Our Audience: Live (2002) Ванессу заменила бас-гитаристка Лин-Зи (Lyn Z). You’ll Rebel to Anything (2005) вышел на индистриал-лейбле Metropolis Records в трёх версиях, отличавшихся как содержанием, так и оформлением. Четвертый альбом If получил высокие оценки ведущих музыкальных изданий. Синглы группы неоднократно возглавляли списки Hot Singles Sales и Dance Singles Sales журнала Billboard. MSI стали завсегдатаями светской рок-хроники после того, как бас-гитаристка (а также художница и дизайнер) Лин-Зи (англ. Lin-Z) в 2007 году вышла за Джерарда Уэя из My Chemical Romance. Скрыть...
Популярные аккорды Mindless Self Indulgence:
алфавиту | просмотрам | случайно
  • Order: Intro A
    Intro B
    Verse
    Chorus
    Intro B
    Verse
    Solo( Half chorus and half intro B with some messed up effects)
    Chorus
    Intro B
    Verse till end
    
    --18--18-18-18-18-18---18-18-18-18-18-18--------------------------------------|
    ------------------------------------------------------------------------------|
    ------------------------------------------------------------------------------|
    ------------------------------------------------------------------------------|
    ------------------------------------------------------------------------------|
    ------------------------------------------------------------------------------|…
  • G|-----------------------------------------------
    D|-----------------------------------------------
    A|--------------2-2-2-3----------------2-2-2-3-3-
    E|--2-2-2-3-3-3----------2-2-2-3-3-3-------------
    
    G|-----------------------------------------------
    D|-----------------------------------------------
    A|--------------2---0---------------2-2-2-3-3----
    E|--2-2-2-3-3-3----------2-2-2-3-3-3-------------
    
    G|---------------------------------------------------
    D|---------------------------------------------------
    A|--------------2--2---4--4--00774455--4--4--00774455
    E|--2--2--3--3---------------------------------------
    
    G|-----------------------------------------------
    D|-----------------------------------------------
    A|--------------2-2-2-3-3--------------2-2-2-3-3-
    E|--2-2-2-3-3-3----------2-2-2-3-3-3-------------
    
    ...
    
    G|-----------------------------------------------
    D|-----------------------------------------------
    A|--------------2-2-2-3-3--------------2-2-2-3-3-
    E|--2-2-2-3-3-3----------2-2-2-3-3-3-------------
    
    G|---------------------------------------------------
    D|---------------------------------------------------
    A|--------------2--2---4--4--00774455--4--4--00774455
    E|--2--2--3--3---------------------------------------
    
    G|-----------------------------------------------
    D|-----------------------------------------------
    A|--------------2-2-2-3-3--------------2-2-2-3-3-
    E|--2-2-2-3-3-3----------2-2-2-3-3-3-------------…
  • Tunning: in drop D
    
    E----------------------------------------------
    B----------------------------------------------
    G----------------------------------------------
    D----------------------------------------------
    A---4-4-----4-4-----4-4-----4-4-----4-4-----4-4
    D---4-4-----4-4-----4-4-----4-4-----4-4-----4-4
    
    E----------------------------------------------
    B----------------------------------------------
    G----------------------------------------------
    D----------------------------------------------
    A-----4-4------0-2--4-4-4-----4-4-----4-4----4-4
    E-----4-4-------------4-4-----4-4-----4-4----4-4…
  • Intro:  all bass, don't worry
    You know it, you know that...
    
    Refrain:
    'cos it's on, oh its on motherfucker
    e|--------------------------------------------------------------------------
    B|--------------------------------------------------------------------------
    G|--------------------------------------------------------------------------
    D|-5/7-5-5-5-5/7-5-5-5-5/7-5-5-5--------------------------------------------
    A|-5/7-5-5-5-5/7-5-5-5-5/7-5-5-5--------------------------------------------
    E|-3/5-3-3-3-3/5-3-3-3-3/5-3-3-3--------------------------------------------
    
    Screaming:
    Balls…
  • Tuning: Standard (E A D G B E)
    
    
    Intro/Verse:
    E|------------------------------------------------||
    B|------------------------------------------------||
    G|-------14----14----14----------10----10----10---||
    D|----14----14----14----14----10----10----10----10||
    A|-12-----------------------8---------------------||
    E|------------------------------------------------||
    
    Intro/Verse…
  • intro:
    
    e-----------------
    b-----------------
    g----8-----8-----8
    d----8-----8-----8
    a----6-----6-----6
    e-----------------
    
    
    verses:
    e--------------------
    b--------------------
    g----8-8---7-7-----11     (Repeat like 5X)
    d----8-8---7-7--8--11
    a----6-6---5-5--8--9-
    e---------------6----
    
    other…
Наверх