Аккорды «Misfits»

Misfits
Misfits появились в этом тщедушном и тесном мире в легендарном 1977 году в городе Лоди, штат Нью-Джерси, что весьма близко к Нью-Йорку. Имя группы взялось из одноименного самого последнего фильма Мэрилин Монро. Изначальный состав представлял из себя трех мисфитов - Glenn Danzig (вокал и электропианино, 23.06.55), Jerry Caiafa (Jerry Only, бас, 21.04.59) и Manny (конечно же ударные). Самое любопытное, что изначально Misfits не были панк-группой, это было рок-н-ролльное трио с психоделическим уклоном… Читать полностью... Misfits появились в этом тщедушном и тесном мире в легендарном 1977 году в городе Лоди, штат Нью-Джерси, что весьма близко к Нью-Йорку. Имя группы взялось из одноименного самого последнего фильма Мэрилин Монро. Изначальный состав представлял из себя трех мисфитов - Glenn Danzig (вокал и электропианино, 23.06.55), Jerry Caiafa (Jerry Only, бас, 21.04.59) и Manny (конечно же ударные). Самое любопытное, что изначально Misfits не были панк-группой, это было рок-н-ролльное трио с психоделическим уклоном в духе самых ранних гаражных групп шестидесятых, что отчетливо доказывает их первая сорокопятка 'Cough/Cool' с ранней версией песни 'She' на обороте - там даже нет примоченных гитар, зато Danzig вовсю насилует электропианино! В 1978 году на Glenn'а свалилась новость, что его почти земляки из Ramones играют совершенно иную разновидность рок-н-ролла - и судьба Misfits была решена. Для усиления саунда в группу были добавлены Frank LiCata (Franche Coma, гитарист, 17.08.57) и Jim Catania (Mr.Jim, 5.01.54) на барабаны. Ритм-секция Misfits приобрела прямолинейное и безостановочное звучание заокеанских Damned. И вот вышел мифический мини-альбом 'Bullet' на их собственном лейбле Plan 9, который и продемонстрировал андеграундному миру таких Misfits, каких мы знаем сегодня, демонстрация удалась, и андеграунд стал платить за пластинки Misfits бешеные деньги, ибо найти их было попросту невозможно. Если кого-то вдруг заинтересует, что значит фраза "Plan 9", могу дать пояснение: в 1959 году режиссер ужасов Ed Wood отснял ставший культовым смехотворный фильм "Plan 9 From Outer Space", который на всех шести континентах получил статус худшего фильма всех времен. Из этого фильма группой было почерпнуто немало вдохновения, и даже образы персонажей - например Vampira. Имидж группы был более, чем соответствующим - мрачные черные цвета, черепа, скелеты и почти вся песенная тематика - отражение увиденного на старинных дешевых киносеансах ужасов. Четыре песни, презентованные на мини-альбоме 'Bullet изначально предназначались для дебютного лонгплея 'Static Age', который так и не вышел, и был собран по кусочкам лишь много лет спустя - в 1996 году, сначала для "гробового" бокс-сета, а затем и для отдельного релиза. В 1979 году произошла очередная смена коней на переправе - в группу пришли гитарист Bobby Steele (18.03.56) и барабанщик Joey Image и новая компания записала мини-альбом 'Horror Business' (Mr.Jim попросту ушел в свою группу Continental Crawler, а затем его видели и слышали в The Adults и Aces And Eights). В ноябре того же года Misfits отправились в Англию сопровождая Damned, и даже была возможность выступать вместе с Clash, но неожиданно Glenn и Bobby подрались со скинхэдами и попали на двое суток в тюрягу (где Glenn написал песню 'London Dungeon'). Турне было сорвано, а из группы смотался барабанщик (в группу Whore Lords) - гастроли были сорваны. Чуть позднее младший брат Jerry, PC,Doyle (15 09.64) был приглашен в Misfits как гитарист, в то время, как барабанщиком стал Arthur Googy. Bobby Steele будучи вытуреным из Misfits не терял времени зря, и сформировал свой проект The Undead, также освоив должность бас-гитариста в Times Square. Первая двенадцатидюймовка Misfits вышла как ни странно в Англии - это был мини-альбом 'Beware', напечатанный фирмой Cherry Red Records, и включивший в себя первые две сорокопятки плюс нереализованная песня ‘Last Caress'. В 1982 году Misfits подписали контракт с Ruby Records и выпустили свой первый долгоиграющий альбом 'Walk Among Us' - двадцать пять минут и тринадцать песен, среди которых классические'20 Eyes' и концертная версия 'Mommy Can I Go Out And Kill Tonight'. Однако предельно удачная работа не удержала в рядах Misfits барабанщика (он впоследствии играл в группе Antidote), и Glenn пригласил в свой состав Robo из Black Flag. Благо Black Flag были их хорошими знакомыми, и голос Henry Rollins'a можно услышать в подпевках концертника 'Evilive'. Ho на этом реминисценции с Black Flag не исчерпывались - звукоинженером следующего мини-альбома Misfits 'Earth A.D.' стал Spot, который no-жизни ваял альбомы Black Flag. Неудивительно, что Misfits при этом капитально сменили свой стиль - теперь это была панк/хардкор группа, где прибавилось скорости и агрессии, но к сожалению, убавилось неповторимой мелодики. Последним барабанщиком Misfits стал в 1983 году Brian Damage, но дни были сочтены - 'Earth A.D.' был последней работа Misfits - Glenn Danzig чувствовал, что пора сменить пластинку и ушел с головой в новую музыку-сначала в полупанковый мистический проект Samhain, а затем стал знаменитостью в хэви-металлических кругах благодаря свой сольной деятельности. Любопытные могут поинтересоваться сменой составов в Samhain, которые были таковы: Glenn Danzig - бессменный вокалист, нащупывающий свой новый стиль, окончательно реализованный в сольном проекте Danzig бас-гитарист Eerie Von - бывший фотограф и биограф Misfits, гитаристы - Lyle Preslar (1983-84), Damien (1984-1986) и John Christ (1987), ударные - Eerie Von (1983), Steve Zing (1983-1985) и London May (1985-1987). Двое участников Misfits - Jerry и Doyle играли в группе Kryst The Conqueror, с 1992 года их барабанщиком был Dr.Chud, и вот этой-то тройке и пришла в голову идея реформировать Misfits без участия Danzig'a. Изначально на должность вокалиста претендовал... Dave Vanian из Damned, но вопрос уяснен не был, и фронтмэном возрожденной легенды в октябре 1995 года стал молодой Michale Graves (21.03.75). Doyle с приставкой к имени Wolfgang Von Frankenstein остался за гитарой, ветеран Jerry Only на басу, барабанщиком стал, естественно Dr.Chud (04.04.64). Весь мир смеялся над этим реюнионом - какой же Misfits без Danzig'a. Но когда вышел диск ‘American Psycho' ухмылки сменились на аплодисменты - альбом презвошел все ожидания и даже последние скептики согласились его поставить в дискографию Misfits далеко не на самое заднее место. 'Famous Monsters' был принят почти с тем же энтузиазмом, хотя и навлек некоторую критику ортодоксальных панков за излишние стилистические привкусы. Группа распадается в 2000 году, но уже через год снова продолжает играть. Дискография: Beware EP 1980 Evillive (live) 1982 Walk Among Us 1982 Earth A.D. / Wolf's Blood 1983 Legacy Of Brutality 1986 Misfits (Collection I) 1988 Collection ll 1995 The Misfits (4 CD box-set) 1996 American Psycho 1997 Static Age 1997 Evillive II 1998 Famous Monsters 1999 12 Hits From Hell 2001 Cuts From The Crypt 2001 Project 1950 2003 Land of the Dead EP 2010 The Devil's Rain 2011 SAMHAIN: Initium 1984 Unholy Passion EP 1986 Samhain III - November Coming Fire 1986 Final Descent 1990 Samhain (box-set) 2001 DANZIG: Danzig I 1988 Danzig II - Lucifuge 1990 Danzig III - How The Gods Kill 1992 Throll - Demonsweatlive 1993 Danzig IV 1994 Blackacidevil 1996 Satan's Child 1999 Sacrifice 2000 THE UNDEAD: 9 Toes Later EP 1982 Never Say Die! 1986 Act Your Rage! 1989 Dawn Of The Undead 1991 Live Slayer 1992 Evening Of Desire EP 1992 Рекомендуемые альбомы: Static Age, Walk Among Us Скрыть...
Популярные аккорды Misfits:
алфавиту | просмотрам | случайно
  • Guitar Tuning:(Eb-Ab-Db-Gb-Bb-Eb)
    
    Beggining Fill-in:
    eb}-----}
    Bb}-----}
    Gb}--4--}
    Db}--4--}
    Ab}--2--}
    Eb}-----}
    
    Intro:(Small Feedback)
    eb}---------------------------------------}
    Bb}---------------------------------------}
    Gb}---------------------------------------}
    Db}---------------------------------------}
    Ab}2/9--4-5--2-9-4-5~--2/9--4-5--2--9--5-4}
    Eb}---------------------------------------}…
  • Tuning:EADGBe
                               
                                     
                             (Intro)
                     
    e|---------------------------------------------------------------|
    B|---------------------------------------------------------------|
    G|--666666666666-------------------------------------------------|
    D|--666666666666----888888888888-----44444444444----6666666666---|
    A|--444444444444----888888888888-----44444444444----6666666666---|
    E|------------------666666666666-----22222222222----4444444444---|…
  • solo   (all strings tuned down 1 half step
    
    /=slide
    @=vibrate
    
    e]--------------------------------------------------------------------------
    b]--------------------------------------------------------------------------
    g]--------------------------------------------------------------------------
    d]4/9@-11-12@-12-11--12-11----9-11-11-11-11-12/14/17/14/17/14/17/14/17/14/17
    a]-----------------12-----12-9----------------------------------------------
    e]----------------------???????---------------------------------------------
    
    e]--------------------------------------------------------------------------
    b]--------------------------------------------------------------------------
    g]-------------------------------------------------2-1-2-1---4-3-4-3-4------
    d]-16/9-8-9-8-9-8-9-8-7-6-7-6-7-6-7-6-5-4-0-5-4-0-2---2---2-4---4---4----9--
    a]-------9---9---9---9---7---7---7---7-----------------------------------9--
    e]--------------------------------------------------------------------19/7--
    
    the…
  • 1st guitar
    e|-----------------------------------------------------------|
    b|-----------------------------------------------------------|
    g|-----------------------------------------------------------|  REPEAT FOUR TIMES
    d|------------------------9-9-9-9----11-11-11-11---7-7-7-7---|
    a|------------7-7-7-7-----7-7-7-7----9-9-9-9-------5-5-5-5---|
    e|------------5-5-5-5----------------------------------------|
    
    
    1st…
  • (* strums may not be correct)
    
    Intro
    
    --------------------------------------------------------------------------
    --------------------------------------------------------------------------
    --------------------------------------------------------------------------
    -----5-------------------5---------10--12---10------7---------------------
    -----3------3----5-------3---------8---10---8-------5---------------------
    ------------1----3--------------------------------------------------------
    
    Verse…
  • riff:
    E|---------------------------------|---------------------------------|
    B|---------------------------------|---------------------------------|
    G|-5-----5-5-----5-5-----5-5---4---|-2-----2-2-----2-2-----2-2---4---|
    D|-5-----5-5-----5-5-----5-5---4---|-2-----2-2-----2-2-----2-2---4---|
    A|-3-----3-3-----3-3-----3-3---2---|-0-----0-0-----0-0-----0-0---2---|
    E+---------------------------------|---------------------------------+…
  • Tuning: Standard
    
    Intro/Verse
    1|-------------------------------------------------|
    2|-------------------------------------------------|
    3|-------------------------------------------------|
    4|-77777777----------------------8-8-8-8--77777777-|
    5|-55555555--999999999--5-5-5-5--6-6-6-6--55555555-|
    6|-----------777777777--3-3-3-3--------------------|
    
    Chorus
    1|---------------------------------------------------------------|
    2|---------------------------------------------------------------|
    3|---------------------------------------------------------------|
    4|-----------------------------7-7-7-7---------------------------|
    5|-9-9-9-9--77777777--5-5-5-5--5-5-5-5--7-7-7-7--5-5-5-5-7-7-7-7-|
    6|-7-7-7-7--55555555--3-3-3-3-----------5-5-5-5--3-3-3-3-5-5-5-5-|
    
    Outro
    1|------------------------------------------|
    2|------------------------------------------|
    3|------------------------------------------|
    4|-77777777------------------------------7--|
    5|-55555555--99999999--5-5-5-5--7-7-7-7--5--|
    6|-----------77777777--3-3-3-3--5-5-5-5-----|
    
    Song…
  • Tuning: Normal
    
    Riff 1:
    E-----------------
    B-----------------
    G-----------------
    D-2-5-2-5-2--5----
    A-2-3-2-3-2--3--5-
    E-0---0---0-----3-  x's 3
    
    Riff 2:
    E------------------
    B------------------
    G------------------
    D-2--5-----------4-
    A-2--3--5--------2-
    E-0-----3…
  • Tune A Half-Step Down(E Flat)
    [eb-Bb-Gb-Db-Ab-Eb]
    
    Intro:
    eb|---------------------------|
    Bb|---------------------------|
    Gb|---------------------------|
    Db|---------------------------|
    Ab|7*~-----4*~-----7*~-----6*~|
    Eb|---------------------------|
    
    eb|-------------------------------------------------------------------|
    Bb|-------------------------------------------------------------------|
    Gb|9(x16)-4(x16)-6(x16)-----------------------------2(x8)-4(x4)--6(x4)|
    Db|9------4------6------6(x16)/7(x16)-2(x16)-5(x16)-2-----4------6----|
    Ab|7------2------4------6-----/7------2------5------0-----2------4----|
    Eb|---------------------4-----/5------0------3------------------------|
    
    Verses:
    eb|-------------------------------------------------------------------|
    Bb|-------------------------------------------------------------------|
    Gb|9(x16)-4(x16)-6(x16)-----------------------------2(x8)-4(x4)--6(x4)|
    Db|9------4------6------6(x16)/7(x16)-2(x16)-5(x16)-2-----4------6----|
    Ab|7------2------4------6-----/7------2------5------0-----2------4----|
    Eb|---------------------4-----/5------0------3------------------------|
    
    Chorus:
    eb|-----------------------------------|
    Bb|-----------------------------------|
    Gb|99999999-66666666-22222222-44444444|
    Db|99999999-66666666-22222222-44444444|
    Ab|77777777-44444444-00000000-22222222|
    Eb|-----------------------------------|…
  • РИФФ 1(во вступлении играете просто, а в куплете с приглушкой)
    H5    G5      A5           B5  E|-5-7-5-7-5-7-5
     
    Anything, is what she´ll give.
    Anywhere, is where she´s from.
    Anything, is what she´ll be.
    Anything,…
  • tune down half step eb Bb Gb Db Ab Eb 
    
    intro drums, then feedback on A# 
      A# 
    eb:---
    Bb:---
    Gb:-7-
    Db:-8-
    Ab:-x-
    Eb:-6-
    
        Intro riff, and other places in the song
    
        E    A5    G5 A# 
    eb:--------------------
    Bb:--------------------
    Gb:1-1--11---------:---
    Db:2-22-22-75-75-:8--
    Ab:2-22-22-75-75-:8--
    Eb:0-00-00-53-53-:6--…
  • E-A-D-G-B-E
    
    RIFF-A (that should be the right amount of times for it)
    E|--------------------------|
    B|--------------------------|
    G|--------------------------|
    D|-9-9-9-9-7-7-7-5-5-5-5-5-5|
    A|-9-9-9-9-7-7-7-5-5-5-5-5-5|
    E|-7-7-7-7-5-5-5-5-3-3-3-3-3|…
  • Tuning: normal
    
    Intro:
    E--------------
    B--------------
    G--------------
    D-5-5555-------
    A-3-3333-7-7777
    E--------5-5555 x's 2
    
    Riff 1:
    E-----------------------------------
    B-----------------------------------
    G-----------------------------------
    D-5-------5-------------------------
    A-3-33333-3-333333--7--------7------
    E-------------------5-555555-5-55555…
  • Main Riff
    |---------|
    |---------|
    |---------|
    |---------|
    |---------|
    |-0-0-3-0-|
    
    Interlude
    |----------------------------------------------------------|
    |----------------------------------------------------------|
    |-2--2-2-2-2-3-3-3-3-2-2-2-2-------------------------------|
    |-2--2-2-2-2-3-3-3-3-2-2-2-2-------------------------------|
    |-0--0-0-0-0-1-1-1-1-0-0-0-0-2-2---------------------------|
    |----------------------------0-0-3-0-----------------------|
    
    Chorus
    |-----------------------------------------------------------------|
    |-----------------------------------------------------------------|
    |---------------------------------3-3-3-3-3-3-3-3-----------------|
    |---------------------------------3-3-3-3-3-3-3-3-5-5-5-5-5-5-5-5-|
    |---------------------------------1-1-1-1-1-1-1-1-5-5-5-5-5-5-5-5-|
    |-0-0-3-0-0-0-3-0-0-0-3-0-0-0-3-0-----------------3-3-3-3-3-3-3-3-|
    
    Bridge
    |----------------------------------------------------------|
    |----------------------------------------------------------|
    |-------------------------3-3------------------------------|
    |-------------------------3-3------------------------------|
    |-------------------------1-1------------------------------|
    |-0-0-3-0-0-0-3-0-0-0-3-0----------------------------------|
    
    
    Repeat…
  • Tuning: normal
    
    Riff 1:        Guitar 1                                                              Guitar 2
    E------------------------------------------------------------------------------|-----------
    B------------------------------------------------------------------------------|-----------
    G------------------------------------------------------------------------------|-----------
    D------------------------------------------------------------------------------|-9--7--5--4
    A-77-5-777-5-777-5-777-5-7-33333333-22-1-22-1-2-1-2-1--------------------------|-7--5--3--2…
  • Tuning: normal
    
    Riff 1:
    E----------------------------------------
    B----------------------------------------
    G----------------------------------------
    D-------------------------22222----------
    A-77777-55555-77777-33333-22222-33333333-
    E-55555-33333-55555-11111-00000-11111111-…
  • ~-let it ring
    h-hammer on
    p-pull off
    
    
    
    Intro:
    
    e:-------
    b:-------
    g:-------
    D:-9~~~~~
    A:-7~~~~~
    E:-------
    
    
    
    e:----------------------
    b:----------------------
    g:----------------------    repeat 2X
    D:-9--9--9--9--9--9--5-7…
  • *= not real strum
    
    verse/intro
    
    ----------------
    ----------------
    ----------------
    -4*---7*--------
    -2-5*-5-7*------
    ---3----5-------
    
    
    chorus
    -----------------
    -----------------
    -----------------
    -4*-7*-----------
    -2--5--5*-4*-----
    -------3*-2*-----
    
    
    
    (order…
  • Tune down 1/2 step:
    
    |----------|----------------------|
    |-fades in-|-----play-4-times-----|
    |----------|----------------------|
    |-----7----|-7-7-7-7-7-7-7--3---5-|
    |-----7----|-7-7-7-7-7-7-7--3---5-|
    |-----5----|-5-5-5-5-5-5-5--1---3-|
    
    |-------------------------|---------------------------------------------------------|
    |------play-8-times-------|---------------------------------------------------------|
    |-------------------------|---------------------------------------------------------|
    |-7-7-7-7-7-7-7-----------|-3---------7---------2-----------------------------------|
    |-7-7-7-7-7-7-7-----------|-3---------7---------2---------3-3-3-3-3-3-3-3-3-3-3-3---|
    |-5-5-5-5-5-5-5--1~~--3~~-|-1---------5---------0---------1-1-1-1-1-1-1-1-1-1-1-1--|…
  • Tuning: normal
    
    Intro:
    E----------------------------------
    B----------------------------------
    G----------------------------------
    D-5-5-5-5-5-----------------------5
    A-3-3-3-3-3--333333-555555--------3
    E------------111111-333333…
  • tuning: normal
    
    Intro                   
    E|-10-10-10-10-10-10-| 
    B|-------------------| 
    G|-------------------| 
    D|-------------------| 
    A|-------------------| 
    E|-------------------| 
    
    Riff 1: Played under the intro
    E---------------
    B---------------
    G---------------
    D-222-----777777
    A-222-333-555555
    E-000-111-------…
  • INTRO:mute=========================>
    E|------------------------------------------------------------------------|
    B|------------------------------------------------------------------------|
    G|------------------------------------------------------------------------|
    D|6-6-6-6-6-6-6-6-6-6-6-6-6-6-6-6-6-6-6-6-6-6-6-6-------------------------|
    A|4-4-4-4-4-4-4-4-4-4-4-4-4-4-4-4-4-4-4-4-4-4-4-4-----------6…
  • Tuning: normal
    
    Riff 1:
    E-------
    B-------
    G-------
    D-2-----
    A-2--5-4
    E-0--3-2 x's 4
    
    Riff 2:
    E-----------
    B-----------
    G-----------
    D-555555-2-2
    A-333333-2-2 x's 4
    E--------0-0
    
    Riff 3:
    E----------------
    B----------------
    G----------------
    D----------------
    A-4444444-7777777
    E-2222222-5555555…
  • Tune down 1/2 step:
    
    |-------------------------------------|
    |-------------play-2-times------------|
    |-7-7-7-7-8-8-8-8---------10-10-10-10-|
    |-7-7-7-7-8-8-8-8-8-8-8-8-10-10-10-10-|
    |-5-5-5-5-6-6-6-6-8-8-8-8--8--8--8--8-|
    |-----------------6-6-6-6-------------|
    
    |-------------------------------------|------------------------|
    |-------------play-4-times------------|------------------------|
    |-7-7-7-7-8-8-8-8---------10-10-10-10-|-8-------------8--------|
    |-7-7-7-7-8-8-8-8-8-8-8-8-10-10-10-10-|-8------8------8------3-|
    |-5-5-5-5-6-6-6-6-8-8-8-8--8--8--8--8-|-6------8------6------3-|
    |-----------------6-6-6-6-------------|--------6-------------1-|…
  • ---------------------------------  
    ---------------------------------
    ------------------6-----8--------
    -------6----3-----6-----8--------      play that till chorus
    -------6----3-----4-----6--------
    -------4----1--------------------
    
    ---------------------------------
    ---------------------------------
    -----6-------8-------6-------8---…
  • Tuning: E flat/Normal
    
    E---------------------
    B---------------------
    G---------------------
    D-2-----7-2~--4-------
    A-2-5-7-5-2~--2-7-5-4- x's 2
    E-0-3-5---0~----5-3-2-
    
    E--------------------------------------------------------------------------
    B--------------------------------------------------------------------------
    G--------------------------------------------------------------------------
    D--------------------------------------------------------------------------
    A-777/666/777/666/777/666-4------4------3------4-----3-----4-----3-444-6-7-
    E-555/444/555/444/555/444-2-222222-111111-222222-11111-22222-11111-222-4-5-…
  • Tune down 1/2 step:
    
    Drums...
    
    |----------------------------|----------------------------|
    |--------play-4-times--------|--------play-4-times--------|
    |-4--------------------------|-4--------------------------|
    |-4-----2-----5--------------|-4-----2-----5--------------|
    |-2-----2-----5--------7-5-7-|-2-----2-----5--------7-5-7-|
    |-------0-----3--------5-3-5-|-------0-----3--------5-3-5-|…
  • Tuning: Standard
    
    Intro/verse:
    1|--------------------|
    2|--------------------|
    3|--------------------|
    4|--------------------|
    5|-7-7--5-5--7-7--5-5-|
    6|-5-5--3-3--5-5--3-3-|
    
    Chorus:
    1|-----------------------|…
  • Tuning: Normal
    
    Riff 1:
    E--------------------------------
    B--------------------------------
    G--------------------------------
    D--------------------------------
    A-6-66-66-4-44-44-8-88-88-9-99-99
    E-4-44-44-2-22-22-6-66-66-7-77-77…
  • Tuning: Normal
    
    Riff 1:  Part A                       Part B
    E-----------------------------|------------------------|
    B-----------------------------|------------------------|
    G-----------------------------|------------------------|
    D--------222222---------------|-------22222------44-22-|
    A-444444-222222-4444444-------|-44444-22222-4444-22-22-|
    E-222222-000000-2222222-x's…
  • intro 
    |-x--x--x--x--x--x--x--x---|--/x-x-xxx-|--/x-x-xxx-|
    |-x--x--x--x--x--x--x--x---|--/x-x-xxx-|--/x-x-xxx-|
    |-x--x--x--x--x--x--x--x---|--/x-x-xxx-|--/x-x-xxx-|
    |-8--8--8--8--8--8--8--8---|--/4-4-444-|--/3-3-333-|
    |-8--8--8--8--8--8--8--8---|--/4-4-444-|--/3-3-333-|
    |-6--6--6--6--6--6--6--6---|--/2-2-222-|--/1-1-111-|
    
    verse
    |-x--x--x--x--x--x--x--x---|--x-x-xxxx-|--x-x-xxxx-|
    |-x--x--x--x--x--x--x--x---|--x-x-xxxx-|--x-x-xxxx-|
    |-x--x--x--x--x--x--x--x---|--x-x-xxxx-|--x-x-xxxx-|
    |-8--8--8--8--8--8--8--8---|--4-4-4444-|--3-3-3333-|
    |-8--8--8--8--8--8--8--8---|--4-4-4444-|--3-3-3333-|
    |-6--6--6--6--6--6--6--6---|--2-2-2222-|--1-1-1111-|
    
    middle
    |--x-----------|--x-----------|--x-----------|--x-----------|
    |--x-----------|--x-----------|--x-----------|--x-----------|
    |--8-----------|--8-----------|--x-----------|--x-----------|
    |--8-----------|--8-----------|--8-----------|--8-----------|
    |--6-----------|--6-----------|--8-----------|--8-----------|
    |--x-----------|--x-----------|--6-----------|--6-----------|
    
    |--x-----------|--x-----------|--xxxxxx---|
    |--x-----------|--x-----------|--xxxxxx---|…
  • Note: The notes in parentheses are played by a keyboard.
    
    eb:----------------------------------
    Bb:----------------------------------
    Gb:(0)-------(0)----(0)--------------
    Db:-------------(2)------------------
    Ab:----1------1--2-------1---5-7-9-8-
    Eb:0-------0---------0-------3-5-7-6-
    
    after…
  • Tuning: normal
    
    Riff 1:
    E------------------------------------
    B------------------------------------
    G------------------------------------
    D-------------------------------77777
    A-444444444444---44444444-77777-55555
    E-222222222222---22222222-55555------…
  • Tuning: Normal
    
    Riff 1:
    E------------------------------------
    B------------------------------------
    G------------------------------------
    D-4--4-------444-----333-----444-777-
    A-2--2---333-222-333-111-333-222-555-
    E--------111-----111-----111---------…
  • Tuning: Standard
    
    Intro: 
    1|---------------------------------------------------------------------
    2|---------------------------------------------------------------------
    3|---------------------------------------------------------------------
    4|2-2-3-2-2-2-3--------------------------------------------------------
    5|0-0-0-0-0-0-0--------------------------------------------------------
    6|---------------------------------------------------------------------
    
    Chorus:
    1|-----------------------|
    2|-----------------------|
    3|-----------------------|
    4|-4-4-3-3-3-4-4-4-3-3-3-|
    5|-2-2-1-1-1-2-2-2-1-1-1-|
    6|-----------------------|…
  • Tuning: normal
    
    Riff 1:
    E-------------------------------------
    B-------------------------------------
    G-------------------------------------
    D-777777777-55555555------------------
    A-555555555-33333333-33333333-55555555
    E--------------------11111111-33333333…
  • Tune 1/2 step down
    You can figure out where to play the parts, not hard.
    
      Intro/Verse
    e|---------------------------------------------------------------------------|
    B|---------------------------------------------------------------------------|
    G|---------------------------------------------------------------------------|
    D|-2-2--5-5--8-8--7-7--3-3-3-3-----------------------------------------------|
    A|-2-2--5-5--8-8--7-7--3-3-3-3-----------------------------------------------|
    E|-0-0--3-3--6-6--5-5--1-1-1-1-----------------------------------------------|…
  • This is to peewee
    
    e-----------------
    B-----------------
    G-----------------
    D-222222222222222-
    A-222222222222222-
    E-000000000000000-
    
    e------------------------------
    B------------------------------
    G-444444444444444--------------
    D-2222222222222222222222222222-…
  • Pt A
    1|------------------------------------------------|
    2|------------------------------------------------|
    3|------------------------------------------------|
    4|--------77-66-------2-2-44-------77-66-222-444--|
    5|-4-6666-55-44-4-666-0-0-22-4-666-55-44-000-222--|
    6|-2-4444-------2-444--------2-444----------------|…
  • Tuning: Normal
    
    Riff 1:
    E-------------
    B-------------
    G-------------
    D----------12~
    A----7--------
    E-55-5-55-----
    pm..   ..
    
    Riff 2:
    E---------
    B---------
    G---------
    D-222-----
    A-222-333-  x's 8
    E-000-111-
    
    Riff 1
    
    Riff…
  • Tuning: Normal
    
    Riff 1:
    E--------------------------------
    B--------------------------------
    G--------------------------------
    D----------------2---------------
    A-5-6-7-8--8-7-6-2--------5-6-7-8
    E-3-4-5-6--6-5-4-0 x's 2--3-4-5-6
    pm.…
  • .... = PM
              ________________________________________
              
              Drums
              
              Intro
                D      B      G      A
              D-77777--44444-----------------------
              A-55555--22222--55555--77777---------…
  • Tuning: Drop D (DADGBe)
    / = Slide up
     = Slide down
    X = Palm Mute 
    
    intro: I dont know how to get the exact sound, but this sorta works if you're
    playing along with the CD:
    
    Play 2X
    |--------------------------------------------|
    |--------------------------------------------|
    |--------------------------------------------|
    |--5/8---7--6--5-----------------------------|
    |--5/8---7--6--5-----------------------------|
    |--5/8---7--6--5-----------------------------|…
  • Tuning: Normal
    
    Riff 1:
    E-------------------------
    B-------------------------
    G-------------------------
    D-2222--------2222--------
    A-2222-3-5----2222-3-5-2-3
    E-0000-1-3----0000-1-3-0-1 x's 2
    
    Riff 2:
    E---------------------------
    B---------------------------
    G---------------------------
    D-22-77--77-55--55--------77
    A-22-55--55-33--33-77--77-55
    E-00---------------55--55---
    
    Riff…
  • intro/first verse(brians for dinner...)
    e|--------------------------------------------------------------------|
    B|--------------------------------------------------------------------|
    G|--------------------------------------------------------------------|
    D|--------2222222---------44444444--------4444444-2222222-------------|
    A|2222222-0000000-2222222-2222222-2222222-2222222-0000000-22222-------|
    E|0000000---------0000000---------0000000----------------000000-------|…
  • intro
    
                            
    G:------------------------------------
    D:--------------------------------------
    A:-------------------------------------     
    E:-0---------------------------------…
  • Tuning: normal
    
    riff 1:
    E-------------------------------------------------
    B-------------------------------------------------
    G-------------------------------------------------
    D----------------------55-44----------------------
    A-55555-888888-333333--33-22-88-77-55------------5…
  • tuning: Standard
    
    Intro:
    1|------------------------|
    2|------------------------|
    3|------------------------|
    4|-7-7-7-7-7-7-7-7-7-7--5-|
    5|-7-7-7-7-7-7-7-7-7-7--5-|
    6|-5-5-5-5-5-5-5-5-5-5--3-|
    
    ---------------------------
    
    Chorus:
    1|-------------------------|
    2|-------------------------|
    3|-5-5-5-5-----------------|
    4|-5-5-5-5--3-3-3-3--------|
    5|-3-3-3-3--3-3-3-3--5-5-5-|
    6|----------1-1-1-1--3-3-3-|
    I…
  • Tuning: 1/2 step down
    
    INTRO
    e|------------------------------------------------------------|
    B|------------------------------------------------------------|
    G|-----------------5-5-5-5------------------5-5-5-5-----------|
    D|--------3-3-3-3--5-5-5-5-7-7-7-7--3-3-3-3-5-5-5-5-----------|
    A|--------3-3-3-3--3-3-3-3-7-7-7-7--3-3-3-3-3-3-3-3-----------|
    E|--131--1-1-1-1----------5-5-5-5--1-1-1-1----------1/131---|
    
    RIFF
    e|----------------------------------------|
    B|----------------------------------------|
    G|----------------------------------------|
    D|--7--7-7-7-7-7-7--5--7--7-7-7-7-7-7--5--|
    A|--7--7-7-7-7-7-7--5--7--7-7-7-7-7-7--5--|
    E|--5--5-5-5-5-5-5--3--5--5-5-5-5-5-5--3--|
    pm…
  • E|-------------------------|  ----------------------| 
    B|-------------------------|  ----------------------| 
    G|-------------------------|  ----------------------|
    D|------------7779--9999---|3X------7777------------|
    A|7777--7777--5557--7777---|…
  • intro:
     drumsticks...
     B D G A
     B D G   A
    verse:
     D B G A      (2x)
    chorus:
     D G A  D  GA (3x)
     D G A
    verse:
     D B G A      (2x)
    chorus:
     D G A  D  GA (3x)
     D G A
    bridge:
     D  E  D  A 
    verse:
     D G A  D  GA (3x)
     D G A
    outro:…
  • Tuning: Normal
    
    Riff 1
    E-----------------------------------------------------------------
    B-----------------------------------------------------------------
    G-2---------------------------------------------------------------
    D-2---------------------------------------------------------------
    A-0---3/55555-3/5555---5/77777-5/77777--33333333--3/55555-3/55555-
    E-----1/33333-1/3333---3/55555-3/55555--11111111--1/33333-1/33333-
    
    Riff…
  • Tuning: normal
    
    chords chords chords.
    
    E----------
    B----------
    G----------
    D-2222222--
    A-2222222--
    E-0000000--
    
    E-------------------------------
    B-------------------------------
    G-------------------------------
    D----------------4444-5555-2222-
    A-2222-7777-2222-2222-3333-2222-
    E-0000-5555-0000-----------0000-
    
    E-------------
    B-------------
    G-------------
    D-44444-22222-
    A-22222-22222-
    E-------00000-
    
    E------------------------------
    B------------------------------
    G------------------------------
    D------------4444-5555-2222----
    A-7777-2222--2222-3333-2222----
    E-5555-0000------------0000----…
  • Tuning: Normal
    
    Riff 1:
    E---------------------------------------------------------------------------------
    B---------------------------------------------------------------------------------
    G---------------------------------------------------------------------------------
    D---------------------------------------------------------------------------------
    A-------------------------------7---------7---------9---------9--------77-77-77777
    E-3-5--35353535…
  • e---------------------------------- intro
    B----------------------------------
    G-77777777777777777777777777777777-
    D-77777777777777777777777777777777- 1x
    A-55555555555555555555555555555555-
    E----------------------------------…
  • Tuning: normal
    
    Riff 1: 
    E-------------------------------
    B-------------------------------
    G-------------------------------
    D-2222-------77-55--------------
    A-2222-5555--55-33-33--4444-5555
    E-0000-3333--------11--2222-3333…
  • Note:  The D and C notes are played by the bass; a palm-muted guitar 
           doubles the notes.  It also sounds like there is a second guitar 
           playing the A chord continuously through the D and C notes.
    
      bass bridge:
    G|-----------------------------------------------------------------|
    D|-------7---5-----------5---3-----------3---1---------------------|
    A|-------------7-5-------------5-3-------------3-1---------3-5-3-5-|
    E|-5---------------3---------------1---------------3---5-----------|…
  • intro
    ----------------------------------------------
    ----------------------------------------------
    ----------------------------------------------
    11-11-10-10-10-10-8-8-6-6-6-6-4-4-4-4-6-6-6-6- X2
    11-11-10-10-10-10-8-8-6-6-6-6-4-4-4-4-6-6-6-6-
    9--9--8--8--8--8--6-6-4-4-4-4-2-2-2-2-4-4-4-4-
    
    verse
    ----------------------------------------
    ----------------------------------------
    ----------------------------------------
    10-10-10-10-10-10-10-10-4-4-4-4-6-6-6-6-…
  • Tuning: Normal
    
    Intro:
    E-------------------------------------------|
    B-------------------------------------------|
    G-------------------------------------------|
    D-5--6--8--6---------55555--66666--88888--5-|
    A-3--4--6--4…
  • Tuning: normal
    
    Riff 1:
    E-----------
    B-----------
    G-----------
    D-666-444-2-
    A-444-222-2-
    E---------0-  x's 8
    
    Riff 2:
    E---------
    B---------
    G---------
    D----44-6- x's 2
    A-3--22-4-
    E-1-------
    
    Riff 1 x's 8
    
    Riff 2 x's 2
    
    Riff…
  • Tuning: normal
    
    Riff 1:
    E-------------------------
    B-------------------------
    G-------------------------
    D-------------------------
    A-66666-55555-99999-101010
    E-44444-33333-77777-88888- x's 8
    
    Riff 2:
    E------------------------------------------------------
    B------------------------------------------------------
    G------------------------------------------------------
    D------------------------------------------------------
    A-77777777-5555555-7777777-444444-7777777-5555555-777777-4-4-4444
    E-55555555-3333333-5555555-222222-5555555-3333333-555555-2-2-2222
    
    Riff…
  • Tuning: Standard (E A D G B E)
    
    Verse
    E|--------|---------|
    B|--------|---------|
    G|--------|---------|
    D|--5-----|---5---9-|
    A|6-3-5-6-|-6-3-5-7-|
    E|4---3-4-|-4---3---|
    
    Chorus
    E|------------------|------------------|------------------------|
    B|------------------|------------------|------------------------|
    G|------------------|------------------|------------------------|
    D|----------------7-|--------------5---|--------------------7-5-|
    A|-5-7-8-10-8-7-5-5-|-5-7-8-10-8-7-5-3-|-5-7-8-10-8-7-5-3-7-5-3-|
    E|------------------|------------------|----------------1-5-----|
    
    Pre-Verse
    E|-------|
    B|-------|
    G|-------|
    D|-------|
    A|-555-6-|
    E|-333-4-|
    
    Ending
    E|------------------|------------------|------------------------------------|
    B|------------------|------------------|------------------------------------|
    G|------------------|------------------|------------------------------------|
    D|----------------7-|----------------5-|----------------------------7777775-|
    A|-5-7-8-10-8-7-5-5-|-5-7-8-10-8-7-5-3-|-5-7-8-10-8-7-5-3333337777775555553-|
    E|------------------|------------------|----------------111111555555--------|
    
    Song…
  • Tuning: normal
    
    Intro: Lightly put finger on low e on slide
    E----------------------|
    B----------------------|
    G----------------------|
    D----------------------|
    A-22222222222----------|
    E--------------6/5/4/3-|
    pm...........…
  • Tune down 1/2 step:
    
    |---------------------------------------------------------------------|
    |---------------------------------------------------------------------|
    |-------6-6-6--------7-7-7--------------------------------------------|
    |-7--7--6-6-6--4--4--7-7-7--7--7--2-2-2-2-2-2-2-2-2-2-2-2-2-2-2-2---|
    |-7--7--4-4-4--4--4--5-5-5--7--7--2-2-2-2-2-2-2-2-2-2-2-2-2-2-2-2---|
    |-5--5---------2--2---------5--5--0-0-0-0-0-0-0-0-0-0-0-0-0-0-0-0---|…
  • tuning: normal
    
    riff 1:
    E--------------------------------------------------------------------------------------------------|
    B--------------------------------------------------------------------------------------------------|
    G--------------------------------------------------------------------------------------------------|
    D-----------------------66666666-5-3333333-555555-------------------------------6666666-5-8888888--|
    A-66666666-5-33333333-5-44444444-3-1111111-333333----------66666666-5-3333333-5-4444444-3-6666666--|
    E-44444444-3-11111111-3---------------------------…
  • Tuning: normal
    
    Riff 1:
    E--------------------
    B--------------------
    G--------------------
    D-2222---------------
    A-2222-5555-7777-5555
    E-0000-3333-5555-3333  x's 6
    
    Riff 2:
    E--------------
    B--------------
    G--------------
    D-666666-------
    A-444444-666666
    E--------444444…
  • e-------------------------------
    B-------------------------------
    G----------------7777777777777--
    D-7777777777777775555555555555--           x2
    A-5555555555555555555555555555--
    E-555555555555555---------------
    
    e----------------------------------------------------------------
    B----------------------------------------------------------------
    G--------------------------------7777777777777777----------------
    D-44444444444444422222222222222227777777777777777222222222222222-
    A-22222222222222222222222222222225555555555555555222222222222222-…
  • Tuning: Normal
    
    Riff 1:
    E------------------------------------------
    B------------------------------------------
    G------------------------------------------
    D-9-99-7-77--------------------9-99-7-77---
    A-----------55-7-5-55…
  • tune half step down
    
    intro
    eb:0------
    Bb:-0-----
    Gb:-------
    Db:---2-5-
    Ab:---2-5-
    Eb:---0-3-
    
    verse
    eb:----------------------
    Bb:----------------------
    Gb:------------------7-6-
    Db:------------------8-7-
    Ab:------------------8-7-
    Eb:00330033003300330-6-5-
    PM…
  • Intro Repeat 4X           ( )= Palm Tute
    E-----------------------   X = Amount Of Times
    B-----------------------
    G--------10-99----------
    D-777777-10-99----------
    A-777777-8--77----------
    E-555555----------------
    
    Verse…
  • ***rest for drums/roars (0:00 - 0:08)
    
    Riff A: (once)
    Gb-------
    Db-------
    Ab-------
    Eb--61--
    
    Riff B: (once)
    Gb--------------------------------------------------
    Db--------------------------------------------------
    Ab--0--------------3-2-0-------------------------0--
    Eb---------2-1-------------2--1-2--1-2--1-2--1-0----
    
    ***rest…
  • B E B F# B (5x)  [solo during fourth repeat]
     C F C G C
    
      solo:
    E|--11-11-11-11-12-12-12-12--|
    B|--12-12-12-12-12-12-12-12--|  Play this riff 4 times.
    G|--11-11-11-11-11-11-11-11--|
    D|---------------------------|
    A|---------------------------|
    E|---------------------------|
    
    E|-------12---12--------12----12----|…
  • snare (3x)
     G G# F (5x)  G G#  C# G# (4x)
     B E (3x)  A# E (2x) F
     G G# F (5x)  G G#  C# G# (4x)
     B E (3x)  A# E (2x) F
     G G# F (5x)  G G#  C# G# (4x)
     B E (3x)  A# E (2x)
     B E (3x)  A B (8x)
     A  B
    ===========
    
    TEENAGERS…
  • Tuning: normal
    
    Intro:
    E----------------------------------
    B----------------------------------
    G----------------------------------
    D-555555-----------555555-7777-9999
    A-333333-7777-5555-333333-5555-7777
    E--------5555-3333-----------------…
  • Tuning: normal
    
    Riff 1:
    E----------------------------------------------------------------------------------
    B----------------------------------------------------------------------------------
    G----------------------------------------------------------------------------------
    D-44444444----------------------8888888888-6-6-6-6-6-6-8-8-8-8-8-------------------
    A-22222222-4444444444-666666666-6666666666-4-4-4-4-4-4-6-6-6-6-6--66666666-4444444-
    E----------2222222222-444444444-----------------------------------44444444-2222222-
    
    Riff…
  • Chords:
    
    C5  (x355xx)
    G5  (355xxx)
    E5  (022xxx)
    F#5 (244xxx)
    B5  (x244xx)
    C#5 (x466xx)
    G#5 (466xxx)
    
    Intro:
    
    E|-------------------------------------------------|
    B|-------------------------------------------------|
    G|--5-5-5-5-5-5-------------5-5-5-5-5-5------------|
    D|--5-5-5-5-5-5-5-5-5-5-5-5-5-5-5-5-5-5-5-5-5-5-5-5|
    A|--3-3-3-3-3-3-5-5-5-5-5-5-3-3-3-3-3-3-5-5-5-5-5-5|
    E|--------------3-3-3-3-3-3-------------3-3-3-3-3-3|
    Cont.
    E|-------------------------------------------------|
    B|-------------------------------------------------|
    G|--5-5-5-5-5-5------------------------------------|
    D|--5-5-5-5-5-5-5-5-5-5-5-5-8-8-8-8-811-11-11-11-11|
    A|--3-3-3-3-3-3-5-5-5-5-5-5-6-6-6-6-6-9--9--9--9--9|
    E|--------------3-3-3-3-3-3------------------------|
    
    Verse:
    
    E|-------------------------------------------------|
    B|-------------------------------------------------|
    G|-----------------4-4-4-4-------------------------|
    D|-2-2-2-2-5-5-5-5-4-4-4-4-5-5-4-4-----------------|
    A|-2-2-2-2-5-5-5-5-2-2-2-2-5-5-4-4-----------------|
    E|-0-0-0-0-3-3-3-3---------3-3-2-2-----------------|…
  • Tuning: Normal
    
    Riff 1:  1st half                       2nd half
    E--------------------------------------------------------------
    B--------------------------------------------------------------
    G--------------------------------------------------------------
    D---44444444------------------------44444444-------------------
    A-4-22222222----------77-44-55----7-22222222-----------77-44-55
    E-5----------x's…
  • Riff A: (4 times)
    Ab--22222222-2222-------
    Eb-----------------4-2--
    
    Riff B: (twice)
    Ab--------------------22222222-2222--
    Eb--00000000-22222222----------------
    
    Riff C: (once)
    Ab--------------------2-1------
    Eb--00000000-22222222-----4-3--
    
    Riff…
  • tuning: normal
    
    riff 1:  Part A                       Part B
    E---------------------------------|----------------------|
    B---------------------------------|----------------------|
    G----------------------222--------|----------------------|
    D----------------------222--------|--55555-44444-(33333--|
    A---3-2-55-3-2-44------000--------|--33333-22222-(11111--|
    E-1---------------3-0-----…
  • Tuning: Standard
    
    *remember. have octave pedal or Distortion on.*
    
    Intro:
    1|-----------------------------|
    2|-----------------------------|
    3|-----------------------------|
    4|-6------------2-----------4--|
    5|-6------------2-----------4--|
    6|-4--7-4-7-4-7-0-0-0-0-0-0-2--|
    
    Verse:…
  • tune all guitars down 1/2 step
    1)
    eb----0--------0--------0-------0-----0-
    Bb-----2--------3--------3-------0-----0
    Gb------2--------0--------2-------------
    Db-------------------0------------------
    Ab--0-----------------------------------
    Eb----------3-----------------0-----3---
    verse
    "My…
  • Tuning: Normal
    
    Riff 1:
    E---------------------------------|
    B---------------------------------|
    G----5----5----5----5/12-12-12-12-|
    D-77---77---77---77---------------|
    A---------------------------------|
    E---------------------------------|
    
    Riff…
  • Tune down 1/2 step:
    
    Bass Slide...
    
      G                    F          D#                D
    |---------------[2-guitars-arrange-for-one]-----------|
    |-----------------------play-2-times------------------|
    |---------------------------------8-------------------|
    |-5--------5--7--8--7--3----------8-------------------|
    |-5-----5-------------------------6-----3--6--5--3--5-|
    |-3---------------------------------------------------|…
  • verse riff:
    E|---------------------------------|---------------------------------|
    B|---------------------------------|---------------------------------|
    G|-9-9-9-9-9-9-9-9-9-9-9-9-9-9-9-9-|-9-9-9-9-9-9-9-9-9-9-9-9-9---7-8-|
    D|-9-9-9-9-9-9-9-9-9-9-9-9-9-9-9-9-|-9-9-9-9-9-9-9-9-9-9-9-9-9-7-7-8-|
    A|-7-7-7-7-7-7-7-7-7-7-7-7-7-7-7-7-|-7-7-7-7-7-7-7-7-7-7-7-7-7-7-5-6-|
    E+---------------------------------|---------------------------5-----+…
  • tuned down a half step (low to high)
    Eb Ab Db Gb Bb Eb
    
    eb:---
    Bb:---
    Gb:---
    Db:---
    Ab:/7~
    Eb:---
    theres two ways you could do what doyles doing
    1. get a tremolo pedal and stand close to amp 
    and get feedback and bend the…
  • Repeat this until it goes into Forbiden Zone
    E---------------------------------------------
    B---------------------------------------------
    G---------------------------------------------
    D---------------------------------------------
    A----7-6------------7-6-7-6-7-6-7-------------
    E-4-------7-6---4-------------------7-6---4---…
  • Main Riff:
    E|---------------------------------|
    B|---------------------------------|  Slide between these
    G|---------------------------------|  notes on the E string.
    D|---------------------------------|
    A|---------------------------------|
    E+-0-----7-----3---5-----3-----2---+…
  • Tuning: Normal
    
    Riff 1:
    E---------
    B---------
    G---------
    D--------4
    A-22--8--2
    E-00--6--- x's 8
    
    Riff 2:
    E--------------------------------------------
    B--------------------------------------------
    G--------------------------------------------
    D-77777-------77777-------77777--------444444
    A-55555-77777-55555-77777-55555-777777-222222
    E-------55555-------55555-------555555-------
    
    Riff…
  • (Intro)
    e|-----------------------------------------------------------------------------|
    B|-----------------------------------------------------------------------------|
    G|-5-5-5-5-5-5-5-5--5-4-2--2-2-2-2-2-2-2-2-------------------------------------|
    D|-5-5-5-5-5-5-5-5--5-4-2--2-2-2-2-2-2-2-2-5-3--3-3-3-3-3-3-3-3--3-4-5---------|
    A|-3-3-3-3-3-3-3-3--3-2-0--0-0-0-0-0-0-0-0-5-3--3-3-3-3-3-3-3-3--3-4-5---------|
    E|-----------------------------------------3-1--1-1-1-1-1-1-1-1--1-2-3---------|…
  • intro:
    e|--------------------------------------------|
    B|--------------------------------------------|
    G---------------------------------------------|
    D|----------------99999999----------99999999--|
    A|89-89-9999999-77777777-99999999-777777777-|
    E|67-67-7777777----------77777777-----------|…
  • Tuning: normal
    
    Riff 1:
    E------------------------------------
    B------------------------------------
    G------------------------------------
    D-22222-777777-777777-22222----------
    A-22222-555555-555555-22222-44-4-4-44
    E-00000---------------00000-22-2-2-22…
  • ]------------------------------------------------------------|
    ]------------------------------------------------------------|
    ]-7-7-7-7-7-7-7-7-7-7-7-7-7-7--5-5--10-10--7-----------------|
    ]-7-7-7-7-7-7-7-7-7-7-7-7-7-7--5-5--10-10--7-----------------|
    ]-5-5-5-5-5-5-5-5-5-5-5-5-5-5--3-3---8--8--5-----------------|
    ]------------------------------------------------------------|…
  • Tuning: normal
    
    Riff 1:
    E--------------------------
    B--------------------------
    G--------------------------
    D-77-66-44----44-66-77-66-4
    A-55-44-22-77-22-44-55-44-2
    E----------55--------------
    
    Riff 2:
    E------------------------
    B------------------------
    G------------------------
    D-------------44-22------
    A-6666666--44-22-22-44444
    E-4444444--22----00-22222…
  • A# A  
     G G A# A# (3x)  G A# A# A#  [6x]
     A# A C  
     A# A
     G G A# A# (3x)  G A# A# A#  [6x]
     A# A C 
     F C A# C (4x)
     A# A  
     G G A# A# (3x)  G A# A# A#  [6x]
     A# A C  
     A# A
     G G A# A# (3x)  G A# A# A#  [6x]
     A# A C 
     F C…
  • Intro: Play this 5 times 
    e|-------------------------------------------------------------------------| 
    B|-------------------------------------------------------------------------| 
    G|-------------------------------------------------------------------------|…
  • Tuning: 1/2 Step Down
    
    RIFF 1
    e|----------------------|--|---------|---------------------|----|
    B|----------------------|--|---------|---------------------|----|
    G|---9::::-----9::::----|--|---OR----|--9:---------9:------|----|
    D|---9::::-----9::::----|x2|-INSTEAD-|--9:--9::----9:-10::-|…
  • Tuning: normal
    
    Learn your chords!
    
    E---------------------------------------------
    B---------------------------------------------
    G---------------------------------------------
    D-77777777--------5555-3333 x's 6---3-3-5555--
    A-55555555-333333-3333-1111---------1-1-3333--
    E----------111111-----------------------------
    
    Then…
  • Tuning: normal
    
    Intro:
    E-----------------------------------
    B-----------------------------------
    G-----------------------------------
    D-2------------444444-999999-1111111
    A-2--4--5--7---222222-777777-999999-
    E-0--2--3--5------------------------
    
    Riff…
  • tuning: normal
    
    Riff 1:
    E----------------------------------------------------------------------------------------|
    B----------------------------------------------------------------------------------------|
    G----------------------------------------------------------------------------------------|
    D-888-777-666-555------------------888-777-666-555-----7777------------55555-66666-------|
    A-666-555-444-333--------5-7-5-7---666-555-444-333-5-7-5555-3-5--77777-33333-44444-55555-|
    E----------------…
  • tuning: normal
    
    riff 1: Part A                 Part B
    E-------------------------------------------
    B-------------------------------------------
    G-------------------------------------------
    D------------------------------555555-777777
    A-5-55-55-33-------------55555-333333-555555
    E-3-33-33-11…
  • INTRO/CH0RUS:5 TIMES
    e|--------------------------------------------------------------------|
    B|--------------------------------------------------------------------|
    G|--------------------------------------------------------------------|
    D|55555555-------------------33333333---------------------------------|
    A|33333333-55555555-33333333-11111111---------------------------------|
    E|---------33333333-11111111------------------------------------------|…
  • Tuning: normal
    
    E---------
    B---------
    G---------
    D-5--4--6-
    A-3--2--4-  x's 2
    E---------
    
    E----------------------------
    B----------------------------
    G----------------------------
    D-55-44-66----------22-77----
    A-33-22-44…
  • Tuning: normal
    
    Riff 1:
    E-----
    B-----
    G-----
    D-----
    A-8--4
    E-6--2 x's 4
    
    Riff 2:
    E---------------
    B---------------
    G---------------
    D---------------
    A-8-8888--4-4444
    E-6-6666--2-2222 x's 4
    
    Riff 3:
    E---------------------
    B---------------------
    G---------------------
    D-2--7---------7-6-5-4
    A-2--5…
  • notation: artificial harmonic EX:(2)
    intro
    Ab:-----2--------3:5--3-----0-2----3--2------
    Eb:0---------0----:----------------------3--5
    
    end of intro
    Eb:3-2-0
    
    riff 1
    Gb:---------------------------------------------------
    Db:-------------------------------4-------------------
    Ab:7-9-10-9-7---7-9-10-9-7----5-7---7-5-3--(2)-(3)-(5)
    Eb:-----------8------------10-------------------------
    
    verse
    B…
  • Tuning: normal
    
    Riff 1:
    E----------------------------------------------------------
    B----------------------------------------------------------
    G----------------------------------------------------------
    D-444444---------------------4444444-333333----------------
    A-222222-44444-666666-44444--2222222-111111-4444444-6666666
    E--------22222-444444-22222-----------------2222222-4444444
    pm…
  • Tune down 1/2 step:
    
    |---|-------------------------------------------------|
    |---|--------------------play-2-times-----------------|
    |---|-------------------------------------------------|
    |---|-2-2-2-2-2-2-2-2-2-2-2-2-4-4-4-4-4-4-4-4-4-4-4-4-|
    |---|-2-2-2-2-2-2-2-2-2-2-2-2-4-4-4-4-4-4-4-4-4-4-4-4-|
    |--|-0-0-0-0-0-0-0-0-0-0-0-0-2-2-2-2-2-2-2-2-2-2-2-2-|
    
    |-------------------------------------------------|
    |---------------------play-2-times----------------|
    |-------------8-8-8-8-8-8-9-9-9-9-9-9-9-9-9-9-9-9-|
    |-9-9-9-9-9-9-8-8-8-8-8-8-9-9-9-9-9-9-9-9-9-9-9-9-|
    |-9-9-9-9-9-9-6-6-6-6-6-6-7-7-7-7-7-7-7-7-7-7-7-7-|
    |-7-7-7-7-7-7-------------------------------------|…
  • Tuning: Normal
    
    Riff 1:
    E--------------------
    B--------------------
    G--------------------
    D---------------77-22
    A-777777-555555-55-22 x's 4
    E-555555-333333----00 
    
    Riff 2:
    E---------------------------------------------------------
    B---------------------------------------------------------
    G---------------------------------------------------------
    D-2222222-77777777------------------222222-5555555-4444444
    A-2222222-55555555------------------222222-3333333-2222222
    E-0000000-----------…
  • E|------------------------------------------------------------------|
    B|------------------------------------------------------------------|
    G|------------------------------------------------------------------|
    D|-------6-----9-----4---------6------9------4----------------------|
    A|-------6-----9-----4---------6------9------4----------------------|
    E|-------4-----7-----2---------4------7------2----------------------|
    
    E|-----------------------------------------------------------------|
    B|-----------------------------------------------------------------|
    G|-----------------------------------------------------------------|
    D|------6------9------4-5-6----------------------------------------|
    A|------6------9------4-5-6----------------------------------------|
    E|------4------7------2-3-4----------------------------------------|
    
    E|------------------------------------------------------------------------|
    B|------------------------------------------------------------------------|
    G|----9--10--7-9--7--5--7--5--3-------------------------------------------|
    D|----9--10--7-9--7--5--7--5--3--5--3-------------------------------------|
    A|----7--8---5-7--5--3--5--3--1--5--3-------------------------------------|
    E|-------------------------------3--1-------------------------------------|
    
    E|-----------------------------------------------------------|
    B|-----------------------------------------------------------|
    G|-----------------------------------------------------------|
    D|-----------------------------------------------------------|
    A|-----------------------------------------------------------|
    E|-----------------------------------------------------------|
    
    E|-----------------------------------------------------------|
    B|-----------------------------------------------------------|
    G|-----------------------------------------------------------|
    D|-----------------------------------------------------------|
    A|-----------------------------------------------------------|
    E|-----------------------------------------------------------|…
  • Intro/Verse:
    4x
    e------------------------------- ---------------------------------------------|
    b------------------------------- ---------------------------------------------|
    g---7--7--7-7-7----------------- ---------------------------------------------|
    d---7--7--7-7-7---7--7--7-7-7---…
  • Tuning: Normal
    
    Intro:
    E-------
    B-------
    G-------
    D--5----
    A--3---5
    E------3
    
    Riff 1: 1st part               2nd part
    E-------------------------------------------------------------
    B-------------------------------------------------------------
    G-------------------------------------------------------------
    D-22222------------------222222-7---7--22222-------22222------
    A-22222-7-5-7------------222222-5-7-5--22222-7-5-7-22222-7-5-7
    E-00000-5-3-5…
  • = Naturel Harmonics
               7~ = Vibrato
               7^ = Bend
              Fill1
              ------------------------------------------------------------------------------
              -8--5-3-2-0----------------------------------------------------------------…
  • 00:00
                                        01                                
    e|----------------|----------------|----------------|----------------|
    b|----------------|----------------|----------------|----------------|
    g|----------------|----------------|----------------|----------------|
    D|----------------|----------------|----------------|--------55555555|
    A|5555555555555555|5555555555555555|5555555555555555|5555555555555555|
    E|3333333333333333|3333333333333333|3333333333333333|3333333333333333|…
  • Tuning: Normal
    
    Note: Found two versions of the chords,
    So I did them both.
    
    Riff 1:
    E------------
    B------------
    G------------
    D-----555----
    A-888-333-333
    E-666-----111
    
    Riff 2:
    E------------
    B------------
    G------------
    D-77777----55
    A-55555-33-33
    E-------11---…
  • Figure 1:
       A+---------------------+
       E+-0-2-3-0-2-0-3-5-12-+
    
     Fig 1 (6x)
     C E D F E  C E D F G
     Fig 1 (6x)
     C E D F E  C E D F G
     D  C C# (2x)
     Fig 1 (6x)
     C E D F E  C E D F G
     D  C C# (2x)
     C E D F E  C E D F G F…
  • Chords:
    
    D#5  (x688xx)
    Bb5  (688xxx)
    C5   (8-10-10xxx) or (x355xx)
    C#5  (x466xx) or (9-11-11xxx)
    G#5  (466xxx)
    F5   (133xxx)
    
    
    Intro:
    
    E|---------------------------------------------------------------------------|
    B|---------------------------------------------------------------------------|
    G|-8-8-8-8-8-8-8-8-----------------------------------------------------------|
    D|-8-8-8-8-8-8-8-8-8-8-8-8-8-8-8-8-10-10-10-10-10-10-10-10-6-6-6-6-6-6-6-6---|
    A|-6-6-6-6-6-6-6-6-8-8-8-8-8-8-8-8-10-10-10-10-10-10-10-10-6-6-6-6-6-6-6-6---|
    E|-----------------6-6-6-6-6-6-6-6--8--8--8--8--8--8--8--8-4-4-4-4-4-4-4-4---|
    cont:
    E|-----------------------------------------------------------------|
    B|-----------------------------------------------------------------|
    G|-6---------------------------------------------------------------|
    D|-6-------6-------8-8-8-8-8-8-8-8-8-8-8-8-8-8-8-8-----------------|
    A|-4-------6-------8-8-8-8-8-8-8-8-8-8-8-8-8-8-8-8-----------------|
    E|---------4-------6-6-6-6-6-6-6-6-6-6-6-6-6-6-6-6-----------------|…
  • tune down 1/2 step
    
    feeback on E with tremolo pedal
    
    intro
    eb:-----------------------
    Bb:-----------------------
    Gb:-----------------------
    Db:-----------------------
    Ab:---------------------2-
    Eb:0--7p0-7p0-0-7p0-7p0-0-
    
    verse
    eb:----------------------------------
    Bb:----------------------------------
    Gb:----------------------------------
    Db:----------------------------------
    Ab:----------------------------------
    Eb:0-3-0-3-0-3--0-3-0-3-0-3--6-6-6p0-
    
    pre…
  • Tuning: Normal
    
    
    Riff 1:
    E---------------------------------
    B---------------------------------
    G---------------------------------
    A-----------555555555-------------
    D-777777777-333333333-----------7-
    E-555555555-----------x's…
  • INTRO (listen to song for timing)
    -------------|--------------------|
    -------------|--------------------|
    -----2---4---|-----2---4------3---|
    -2---2---4---|-2---2---4------3---|
    -2---0---2---|-2---0---2------1---|
    -0-----------|-0------------------|
    
    VERSE…
  • Tuning: Normal
    
    Riff 1:
    E----------------------|
    B----------------------|
    G----------------------|
    D-33333-3--------------|
    A-11111-1-55-33--------|
    E---------33-11  x's 8-|
    
    Riff 2:
    E-------------------------------------------------|
    B-------------------------------------------------|
    G-------------------------------------------------|
    D---------------333333---------------333333-------|
    A-333333-555555-111111-333333-555555-111111-77-55-|
    E-111111-333333--------111111-333333--------55-33-|
    
    Riff…
  • Tuning: Standard (E A D G B E)
    
    Intro 
    E|---------|---||
    B|---------|---||
    G|---------|---||
    D|-7-------|-7-||
    A|-5-7-(x4)|-5-||
    E|---5-----|---||
    
    Verse
    E|-----------||
    B|-----------||
    G|-----------||
    D|-7---------||
    A|-5-7-9-5-7-||
    E|---5-7-3-5-||
    
    Pre-Chorus
    E|---------|---------||
    B|---------|---------||
    G|---------|---------||
    D|-7-------|---------||
    A|-5-9-(x2)|-5-7-(x2)||
    E|---7-----|-3-5-----||
    
    Chorus
    E|---------||
    B|---------||
    G|---------||
    D|-7-------||
    A|-5-9-5-7-||
    E|---7-3-5-||
    
    Break-Off…
Наверх