Аккорды Misfits - Hollywood Babylon

Добавлено: @romashka
Дата добавления: 23 Июня 2016г.
Рейтинг:
0.0
Просмотров: 395
Транспонировать - +
Main Riff
|---------|
|---------|
|---------|
|---------|
|---------|
|-0-0-3-0-|

Interlude
|----------------------------------------------------------|
|----------------------------------------------------------|
|-2--2-2-2-2-3-3-3-3-2-2-2-2-------------------------------|
|-2--2-2-2-2-3-3-3-3-2-2-2-2-------------------------------|
|-0--0-0-0-0-1-1-1-1-0-0-0-0-2-2---------------------------|
|----------------------------0-0-3-0-----------------------|

Chorus
|-----------------------------------------------------------------|
|-----------------------------------------------------------------|
|---------------------------------3-3-3-3-3-3-3-3-----------------|
|---------------------------------3-3-3-3-3-3-3-3-5-5-5-5-5-5-5-5-|
|---------------------------------1-1-1-1-1-1-1-1-5-5-5-5-5-5-5-5-|
|-0-0-3-0-0-0-3-0-0-0-3-0-0-0-3-0-----------------3-3-3-3-3-3-3-3-|

Bridge
|----------------------------------------------------------|
|----------------------------------------------------------|
|-------------------------3-3------------------------------|
|-------------------------3-3------------------------------|
|-------------------------1-1------------------------------|
|-0-0-3-0-0-0-3-0-0-0-3-0----------------------------------|


Repeat the above as many times as needed

Наверх