Аккорды Misfits - Hybrid Moments

Добавлено: @romashka
Дата добавления: 23 Июня 2016г.
Рейтинг:
0.0
Просмотров: 354
Транспонировать - +
Tuning: Standard

Intro/Verse
1|-------------------------------------------------|
2|-------------------------------------------------|
3|-------------------------------------------------|
4|-77777777----------------------8-8-8-8--77777777-|
5|-55555555--999999999--5-5-5-5--6-6-6-6--55555555-|
6|-----------777777777--3-3-3-3--------------------|

Chorus
1|---------------------------------------------------------------|
2|---------------------------------------------------------------|
3|---------------------------------------------------------------|
4|-----------------------------7-7-7-7---------------------------|
5|-9-9-9-9--77777777--5-5-5-5--5-5-5-5--7-7-7-7--5-5-5-5-7-7-7-7-|
6|-7-7-7-7--55555555--3-3-3-3-----------5-5-5-5--3-3-3-3-5-5-5-5-|

Outro
1|------------------------------------------|
2|------------------------------------------|
3|------------------------------------------|
4|-77777777------------------------------7--|
5|-55555555--99999999--5-5-5-5--7-7-7-7--5--|
6|-----------77777777--3-3-3-3--5-5-5-5-----|

Song Form
Intro 2X's
Chorus once
Intro 2X's
Chorus once
Intro 2X's
Chorus once
Outro once
Наверх