Аккорды Misfits - Saturday Night

Добавлено: @romashka
Дата добавления: 23 Июня 2016г.
Рейтинг:
0.0
Просмотров: 450
Транспонировать - +
Tuning:EADGBe
                           
                                 
                         (Intro)
                 
e|---------------------------------------------------------------|
B|---------------------------------------------------------------|
G|--666666666666-------------------------------------------------|
D|--666666666666----888888888888-----44444444444----6666666666---|
A|--444444444444----888888888888-----44444444444----6666666666---|
E|------------------666666666666-----22222222222----4444444444---|

  About 10 strums per chord, Some of the strumming isnt full, and some of the chords
      ring out longer than others, but it can be played like the above
              

                   (Then the first solo)

e|---------------------------------------------------------------|
B|---------------------------------------------------------------|
G|---------------------------------------------------------------|
D|---------------------------------------------------------------|
A|---4--8-6-4-6-8-4--4-6-8-4-4--6-4-3-3-4-6-4--------------------|
E|---------------------------------------------------------------|

                         (Verse )  

e|---------------------------------------------------------------|
B|---------------------------------------------------------------|
G|--666666666666-------------------------------------------------|
D|--666666666666----888888888888-----44444444444----6666666666---|
A|--444444444444----888888888888-----44444444444----6666666666---|
E|------------------666666666666-----22222222222----4444444444---|


Repeat until the bit; ‘And I can remember when I saw her last…’ (00:57)

                       Which goes like:
e|---------------------------------------------------------------|
B|---------------------------------------------------------------|
G|---------6--------6--------------------------------------------|
D|--4---6--6--4--6--6---4--6---3--4--6---------------------------|
A|--4---6--4--4--6--4---4--6---3--4--6---------------------------|
E|--2---4-----2--4------2--4---1--2--4---------------------------|

                       (Chorus 1) 
 
e|--------------------------------|
B|--------------------------------|
G|---6---------------6------------|
D|---6----8---4---6--6------------|      X2
A|---4----8---4---6--4------------|
E|--------6---2---4---------------|

                     ( Solo 2 )

e|---------------------------------------------------------------|
B|---------------------------------------------------------------|
G|---------------------------------------------------------------|
D|---------------------------------------------------------------|
A|---4---8-6-4-6-8-4---4-6-8-4-4-6-4--3-3-4-6-6------------------|
E|---------------------------------------------------------------|


                         (Verse 2)

e|---------------------------------------------------------------|
B|---------------------------------------------------------------|
G|---8888888888----555555555-------------------------------------|
D|---8888888888----555555555----6666666666---8888888888----------|   X2
A|---6666666666----333333333----6666666666---8888888888----------|
E|------------------------------4444444444---6666666666----------|

             Around 10 times strum each chord again


                     (Bridge 2)                 

e|-------------------|
B|-------------------|
G|-----------8-------|
D|---6---8---8-------|     X 2
A|---6---8---6-------|
E|---4---6-----------|

    
                       Then...

e|----------------------------|
B|----------------------------|
G|----------------------------|
D|--6--8--5--6--6--8----------|
A|--6--8--5--6--6--8----------|
E|--4--6--3--4--4--6----------|

        
        (Chorus 2)

e|------------------------------|
B|------------------------------|
G|--8---5--------8--------------|     X2
D|--8---5--6--8--8--------------|
A|--6---3--6--8--6--------------|
E|---------4--6-----------------|

                    (Outro)

e|---------------------------------------------------------------|
B|---------------------------------------------------------------|
G|--8--7--5--5--3--------------8---------------------------------|
D|--8--7--5--5--3---6---6--8---8---------------------------------|
A|--6--5--3--3--1---6---6--8---6---------------------------------|
E|------------------4---4--6-------------------------------------|

| / slide up
|  slide down
| h hammer-on
| p pull-off
| ~ vibrato
| + harmonic
| x Mute note
Наверх