Аккорды Misfits - We Bite

Добавлено: @romashka
Дата добавления: 23 Июня 2016г.
Рейтинг:
0.0
Просмотров: 394
Транспонировать - +
E-A-D-G-B-E

RIFF-A (that should be the right amount of times for it)
E|--------------------------|
B|--------------------------|
G|--------------------------|
D|-9-9-9-9-7-7-7-5-5-5-5-5-5|
A|-9-9-9-9-7-7-7-5-5-5-5-5-5|
E|-7-7-7-7-5-5-5-5-3-3-3-3-3| 

RIFF-B
E|------------------------------------------|
B|------------------------------------------|
G|------------------------------------------|
D|-12-12-12-12-12-12-12-12-5-5-5-5-5-5-5-5--|
A|-12-12-12-12-12-12-12-12-5-5-5-5-5-5-5-5--|
E|-10-10-10-10-10-10-10-10-3-3-3-3-3-3-3-3--|

Наверх