Аккорды MiyaGi - Горит и поет

Добавлено: @romashka
Дата добавления: 30 Января 2018г.
Рейтинг:
0.0
Просмотров: 308
Транспонировать - +
Вступление:
     Am                            G
e||---------------------|-----------------------|
B||--1------------------|-----------------------|
G||--2------------------|--4--------------------|
D||--2------------------|--5--------------------|
A||--0------------------|--5--------------------|
E||---------------------|--3--------------------|

Am            G
Горит и поет, горит и поет 

Куплет:
     Am                            G
e||----------------------|----------------------|
B||-------1---------1----|-------0---------0----|
G||----2---2-----2---2---|----0---0-----0---0---|
D||---2-----2---2-----2--|---0-----0---0-----0--|
A||--0---------0---------|----------------------|
E||----------------------|--3--------3----------|

 Am
Задрыпанный теледебат в теле меня
       G
Коммуникабельный калека в праве что-то менять
            Am
Говорит как правило на люди кеми забыты мы были
       G                                 Am
Теми же разбавлены или про всеми забыты правила
                                       G
Не наливайте в эпоху пьяни расеянна паника
                                       Am
Не заливайте опустели эти строки поланика
                                 G
Я нервно говорю я слепо вижу каждого
                                       Am
Дебаты в теле наговорили до боли, но важного
                              G
Минуты музыки меняем бесконечность
                             Am
Моя свобода, любовь и беспечность
                   G
Кружи меня в танце и не отпускай
G
Будь со мною вечно
Am
Другая сторона же заявляет об ином
G
Вся эта музыка оков и есть тот самый ком
   Am
Что время забирает, местами меняет полюса
  G
Не верит в этот треп, мол это антидеприсант
 Am
и скипетр трума на гибель имени
            G
Того самого людного, лютого внутри тебя безумного
  Am
Пламя погаснет и кому ты нужен из своих
Am
Дики-дикий меломан и в тоже время полный псих   

Припев:
     Am                            G
e||--0---0--0-0-0--0-0-|--3---3--3-3-3--3-3-|
B||--1---1--1-1-1--1-1-|--3---3--3-3-3--3-3-|
G||--2---2--2-2-2--2-2-|--4---4--4-4-4--4-3-|
D||--2---2--2-2-2--2-2-|--5---5--5-5-5--5-5-|
A||--0---x--0-0-0--x-0-|--5---5--5-5-5--5-5-|
E||--------------------|--3---x--3-3-3--x-3-|

  Am
Я пламя которое в сердце твоем,
  G
Горит и поет, горит и поет,
  Am
И каждую секунду где-то солнце встает
  G
И согревает гранулами грусти мой холодный лёд
  Am
Я пламя которое в сердце твоем,
  G
Горит и поет, горит и поет,
  Am
И каждую секунду где-то солнце встает
  G
И согревает гранулами грусти мой холодный лёд   

Вступление:
     Am                            G
e||---------------------|-----------------------|
B||--1------------------|-----------------------|
G||--2------------------|--4--------------------|
D||--2------------------|--5--------------------|
A||--0------------------|--5--------------------|
E||---------------------|--3--------------------|

Am            G
Горит и поет, горит и поет 

Am
Сцена со стороны контроля, как в душе поребрик
G
Мой пьедестал среди людей берет забытый пленник
A
Гнилой по совести богатый чел подвиг замес
G                                           
Остапа понесло, это как писать забытый текст    

Куплет:
     Am                            G
e||----------------------|----------------------|
B||-------1---------1----|-------0---------0----|
G||----2---2-----2---2---|----0---0-----0---0---|
D||---2-----2---2-----2--|---0-----0---0-----0--|
A||--0---------0---------|----------------------|
E||----------------------|--3--------3----------|

Am
Улыбка право же затмит весной весны невзгоды
G
Дожди смоют как на прокат и в боксе
Am
Манил запах зимы, но календарь порвал надежду
G
Ты лайф мудак с чекой в руке под-подорвал контексты
Am
Не бесполезны, но достаток покажет мне шрамы
G
Вера в Господа храни друзей тобиш сплоченый клан
Am
Храм очистный всевладык наклеек перебивает слезы
G
Кто не целован ангелом, не знает запах розы
Am
Я долго спал куда-то не дрочи мои просторы
G
Хую знатков по лирике, плюю в компот для дозы
Am
Свирепым был да ладно, твой предел в затылок гвозди
G
Страна, где пахнет кровью с привкусом постным
Am
На трон консилиум врачей, тех кто подлечат треком
G
Наш лексикон гонит гипнозом прикрывая креки
Am
И крах поставит на колени боже помоги
Am
Добавь притоки бурному течению реки.   

Припев:
     Am                            G
e||--0---0--0-0-0--0-0-|--3---3--3-3-3--3-3-|
B||--1---1--1-1-1--1-1-|--3---3--3-3-3--3-3-|
G||--2---2--2-2-2--2-2-|--4---4--4-4-4--4-3-|
D||--2---2--2-2-2--2-2-|--5---5--5-5-5--5-5-|
A||--0---x--0-0-0--x-0-|--5---5--5-5-5--5-5-|
E||--------------------|--3---x--3-3-3--x-3-|

  Am
Я пламя которое в сердце твоем,
  G
Горит и поет, горит и поет,
  Am
И каждую секунду где-то солнце встает
  G
И согревает гранулами грусти мой холодный лёд
  Am
Я пламя которое в сердце твоем,
  G
Горит и поет, горит и поет,
  Am
И каждую секунду где-то солнце встает
  G
И согревает гранулами грусти мой холодный лёд   

Куплет:
     Am                            G
e||----------------------|----------------------|
B||-------1---------1----|-------0---------0----|
G||----2---2-----2---2---|----0---0-----0---0---|
D||---2-----2---2-----2--|---0-----0---0-----0--|
A||--0---------0---------|----------------------|
E||----------------------|--3--------3----------|

Am
Волны подбивают на мысли о вечном,
G
Что зря в себе храним, а что стоит беречь нам
Am
Сам никогда не видел тех карет из историй
G
Но будь уверен мы с тобой все планеты освоим
Am
Несомненно друзья наши мечты идеальны
G
Мой выдуманный мир вскоре станет самым реальным
Am
Душа кричит о том, что космос рядом
G
Но мозг мечты называет ядом
A
Именно поэтому я глупый и стремлюсь в полет
G                                     Am
Мысли падают на пол, душа горит и поет (горит и поет)
                G
Я у твоих ворот, изучать людей изнутри — это мой конек
Am
Я не художник и как могу рисую жизнь
G
Это карусель небезопасна, так что держись
Am
Три истории и в каждой сюжеты для фильмов
G
Если мой внутренний мир планета, то мамонты вымрут    

Переход в последний припев:
           Am
e||---------------------|
B||--1------------------|
G||--2------------------|
D||--2------------------|
A||--0------------------|
E||---------------------|  

Припев:
     Am                            G
e||--0---0--0-0-0--0-0-|--3---3--3-3-3--3-3-|
B||--1---1--1-1-1--1-1-|--3---3--3-3-3--3-3-|
G||--2---2--2-2-2--2-2-|--4---4--4-4-4--4-3-|
D||--2---2--2-2-2--2-2-|--5---5--5-5-5--5-5-|
A||--0---x--0-0-0--x-0-|--5---5--5-5-5--5-5-|
E||--------------------|--3---x--3-3-3--x-3-|

  Am
Я пламя которое в сердце твоем,
  G
Горит и поет, горит и поет,
  Am
И каждую секунду где-то солнце встает
  G
И согревает гранулами грусти мой холодный лёд
  Am
Я пламя которое в сердце твоем,
  G
Горит и поет, горит и поет,
  Am
И каждую секунду где-то солнце встает
  G
И согревает гранулами грусти мой холодный лёд   

  Am
Я пламя которое в сердце твоем,
  G
Горит и поет, горит и поет,
  Am
И каждую секунду где-то солнце встает
  G
И согревает гранулами грусти мой холодный лёд
  Am
Я пламя которое в сердце твоем,
  G
Горит и поет, горит и поет,
  Am
И каждую секунду где-то солнце встает
  G
И согревает гранулами грусти мой холодный лёд   

  Am
Я пламя которое в сердце твоем,
  G
Горит и поет, горит и поет.
Наверх