Аккорды Moby Grape - Indifference

Добавлено: @romashka
Дата добавления: 05 Ноября 2018г.
Рейтинг:
0.0
Просмотров: 6
Транспонировать - +
Intro Solo:

E|-----------------------------------|
B|-----------------------------------|
G|-----9--11--6--7p6--4--2--------2--|  Play twice
D|-----------------------------4-----|
A|--0---------0----------0-----------|
E|-----------------------------------|

Rythm part, play 4 times and use between lines of verses.
E|--------------------------------------|
B|--------------------------------------|
G|-----------------2-----------------2--|
D|--2--4--5--2h4-------2--4--5--2h4-----|
A|--0--0--0--0-----0---0--0--0--0----0--|
E|--------------------------------------|

   F        G         C      D
"What a difference a day has made" -Alternatively, you could use this:
E|--------------------------------2--|
B|--------1--0--------0--1--0-----3--|
G|--------2-----------0--0-----2--2--|
D|-----3-----------0-----2--------0--|
A|-----------------------3-----------|
E|--1-----------3--------------------|

And, this is the lead part during the verses:
E|-----------------------------|
B|-----------------------------|
G|--0--5--4--2--4--5--4--2--2--|
D|-----------------------------|
A|-----------------------------|
E|-----------------------------|

Obviously there's a wide range of ways you could play the verse, it would naturally 
depend on how many guitarists you're playing with, so it's up to you which way you decide to 
play it.

Fill in gaps between lines with the rythm part above.

End of verse:
F        G             D          A
What a difference and more of the same

Chorus:
C           G
What's that song you're singing?
D                   A
Just a bell ringing in my mind
C           G
What's that tune you're bringing?
D                       A
Just part of what there is to find

Same thing, incorporating a bassline:
             C           G                 D           A
E|-----------3-----3-----3-----3-----------5-----5-----5-----5--|
B|-----------5-----5-----3-----3-----------7-----7-----5-----5--|
G|-----------5-----5-----4-----4-----------7-----7-----6-----6--|
D|-----------5-----5-----5-----5-----------7-----7-----7-----7--|
A|--0--2--3--3--3--3-----5-----5--3--4--5--5--5--5-----7-----7--|
E|--------------------3--3--3--3--------------------5--5--5--5--|

The whole thing minus the intro repeats itself twice (different lyrics), then ends with this:

C        G       D      E
Just one thing I got to say
D        C      A
Try some today, now, baby
D       C     A
Try some now

E|--------------------------------------|
B|--------------------------------------|
G|-----------------2-----------------2--|
D|--2--4--5--2h4-------2--4--5--2h4-----|
A|--0--0--0--0-----0---0--0--0--0----0--|
E|--------------------------------------|

E|--------------------------------2--|
B|--------1--0--------0--1--0-----3--|
G|--------2-----------0--0-----2--2--|
D|-----3-----------0-----2--------0--|
A|-----------------------3-----------|
E|--1-----------3--------------------|
comments powered by Disqus
Наверх