Аккорды Moby Grape - Seeing

Добавлено: @romashka
Дата добавления: 05 Ноября 2018г.
Рейтинг:
0.0
Просмотров: 6
Транспонировать - +
Intro:
      C           F             G                    Am
E|-----------------------------------------------------------------|
B|----1-----------1-------------3--------3----------------5--------|
G|-------0-----------2-------------4--------4-----4----------5-----|
D|----------2--3--------3--3/5--------5--------5-----5/7--------7--|
A|-3---------------------------------------------------------------|
E|-----------------------------------------------------------------|

                G
E|-----------------------------------------------------------------|
B|-5--------------3--------3---------------------------------------|
G|----5-----5--------4--------4------------------------------------|Repeat
D|-------7-----5--------5---------0h2p0----------------------------|
A|----------------------------------------3------------------------|
E|-----------------------------------------------------------------|

C        F              G              Am       G
If you'd seen the naked dream I had of you
C         F   G         Am         G
Would you care and come through?

G                    F
Take me far away, my wiles and mind
      C               G
Can't beat a dream of death today
G                        F         C
Hard to get by when what greets my eye
         G
Takes my breath away

E|---------------------|
B|--------5p3p0--------|
G|--0--0---------0-----|This lick is played at the end of the second
D|---------------------|and 4th lines of the chorus
A|---------------------|
E|---------------------|

E|---------------------|
B|--------5p3----------|
G|--0--0--------5p4h5--|Note: The last time this is played, it ends
D|---------------------|slightly different.
A|---------------------|
E|---------------------|

C     F             G
In my dream you are around the stars
                         Am          G
I watched your walls all fall away
C        F                    G
You were bare of thoughts, we were to part
       Am                 G
And we stayed that way

E|----------------|
B|----------------|
G|----------------|This is played right before the chorus
D|---------5h7/9--|and the lick used above is also used
A|---5h7----------|
E|----------------|

G
Some try to hide
F
Because they lied
     C
They were not true
    G
And they were afraid

G
They refuse to see
      F        C
Or be free, be one with me
G
And to gods, they prayed
        Em
Cryin', "Save me, save me"

Save me, save me, save me
          G    C   D F
I'll save you, can I spend you?

Solo:
  G played throughout
E|------------------------------------------------------------------------|
B|--12v-------------------------------------------------------------------|
G|---------------10--10--12b14r12--10--10--10--12--10------10/12--12--12--|
D|-------10--12----------------------------------------12-----------------|
A|------------------------------------------------------------------------|
E|------------------------------------------------------------------------|

E|------------------------------------------------------------------------|
B|------------------------------------------------------------------------|
G|--12h14p12--10h12p10--7h9p7/12--12--12--12h14p12--10h12p10--7h9p7/12-12-|
D|------------------------------------------------------------------------|
A|------------------------------------------------------------------------|
E|------------------------------------------------------------------------|

E|------------------------------------------------------------------------|
B|------------------------------------------------------------------------|
G|--12---12h14p12--10h12p10--7h9p7/12--12--12--12h14p12--10h12p10--7h9p7--|
D|------------------------------------------------------------------------|
A|------------------------------------------------------------------------|
E|------------------------------------------------------------------------|

Back to intro riff:
C            F     G       Am         G
And now this naked dream I had of you
C        F  G          Am        G
Will you care and come through?

G                    F
Take me far away, my wiles and mind
      C               G
Can't beat a dream of death today
G                        F         C
Hard to get by when what greets my eye
         G
Takes my breath away

E|----------------------------------|
B|--10b12--12r10--8--8h10p8------8--|
G|---------------------------10-----|This is at the beginning of that chorus
D|----------------------------------|Note: may not be accurate
A|----------------------------------|
E|----------------------------------|

Em
Cryin', "Save me, save me, save me"

     G                            F
E|--------------------------------------------------------|
B|------12--12--------------------10--10--10--10--10--10--|
G|------12--12--------------------10--10--10--10--10--10--|
D|------12--12--------------------10--10--10--10--10--10--|
A|--10--10--10--3h4h5/10--8h10p8--8---8---8---8---8---8---|
E|--------------------------------------------------------|

E|-------------------------|
B|-10--10--10--10--10--10--|
G|-10--10--10--10--10--10--|
D|-10--10--10--10--10--10--|
A|-8---8---8---8---8---8---|
E|-------------------------|

From here, it goes to the solo again:
  G played throughout
E|------------------------------------------------------------------------|
B|--12v-------------------------------------------------------------------|
G|---------------10--10--12b14r12--10--10--10--12--10------10/12--12--12--|
D|-------10--12----------------------------------------12-----------------|
A|------------------------------------------------------------------------|
E|------------------------------------------------------------------------|

E|------------------------------------------------------------------------|
B|------------------------------------------------------------------------|
G|--12h14p12--10h12p10--7h9p7/12--12--12--12h14p12--10h12p10--7h9p7/12-12-|
D|------------------------------------------------------------------------|
A|------------------------------------------------------------------------|
E|------------------------------------------------------------------------|

E|------------------------------------------------------------------------|
B|------------------------------------------------------------------------|
G|--12---12h14p12--10h12p10--7h9p7/12--12--12--12h14p12--10h12p10--7h9p7--|
D|------------------------------------------------------------------------|
A|------------------------------------------------------------------------|
E|------------------------------------------------------------------------|

Outro:
E|--------------------------------------------|
B|-----1-----------1-----------------------1--|
G|--------0-----------2--------------------0--|
D|-----------2--3--------------------------2--|
A|--3--------------------------------------3--|
E|-----------------------1/3--3/4/5--4--1-----|

It sounds like the outro is done on a bass, but what's posted above works

The final notes are played on an organ
comments powered by Disqus
Наверх