Аккорды Modulogeek - Around

Добавлено: @romashka
Дата добавления: 22 Ноября 2020г.
Рейтинг:
0.0
Просмотров: 107
Транспонировать - +
         x8                 x4                  x3
e|---------------------------------------------------------------------------|
B|-------------0------------1-------------------------1----------------------|
G|-------5------------------------2------------------------------------------|
D|-----------------------------------------------3---------------------------|
A|--3------------------------------------------------------------------------|
E|----------------------1------------------3---------------------------------|


         x4                 x2                  x2
e|---------------------------------------------------------------------------|
B|-------------0------------1-------------------------1----------------------|
G|-------5------------------------2------------------------(0)---------------|
D|-----------------------------------------------3---------------------------|
A|--3------------------------------------------------------------------------|
E|----------------------1------------------3---------------------------------|


         x2
e|----------------------------------0----------------0-----------0-----------|
B|-------------1---------3------------------1-------------1-----------1------|
G|--------------------------------------2--------------------------------2---|
D|--------2------------------------------------------------------------------|
A|--0------------------------------------------------------------------------|
E|-----------------------3----------1-------------1----------3---------------|
Наверх