Аккорды MOLLY - Набери мой номер

Добавлено: @romashka
Дата добавления: 07 Мая 2019г.
Рейтинг:
0.0
Просмотров: 75
Транспонировать - +
Intro: Cm Fm D# G }x2

e|---10-11-11-11---10-11-11-10-11---10-11-11-11-13-11-10-8-7-|
B|-8-------------9----------------8--------------------------|
G|-----------------------------------------------------------|
D|-----------------------------------------------------------|
A|-----------------------------------------------------------|
E|-----------------------------------------------------------|

e|---10-11-11-11-----10-11-13-11---10-11-11-11-13-11-10-8-10-|
B|-8-------------9-9-------------8---------------------------|
G|-----------------------------------------------------------|
D|-----------------------------------------------------------|
A|-----------------------------------------------------------|
E|-----------------------------------------------------------|

Куплет 1:
Cm        Fm A#          G         Cm
Нежные стихи я тебе не писала от руки -
             Fm               G
А, может, из памяти стёрлись они.
Cm              Fm  A#         G           Cm
На остановке войти, я попробую нас переплести -
           Fm          G
И кажется, это всё не зря.

Припев:
    Cm                 Fm
Набери мой номер, позвони мне срочно,
D#                         G
Напиши хоть строчку - я люблю тебя очень!
    Cm                 Fm
Набери мой номер, позвони хоть ночью,
D#                        G
Напиши хоть строчку - я хочу тебя очень!

    Cm                 Fm
Набери мой номер, позвони мне срочно,
D#                         G
Напиши хоть строчку - я люблю тебя очень!
    Cm                 Fm
Набери мой номер, позвони хоть ночью,
D#                        G
Напиши хоть строчку - я хочу тебя очень!

Проигрыш: Cm Fm D# G }x2

e|---10-11-11-11---10-11-11-10-11---10-11-11-11-13-11-10-8-7-|
B|-8-------------9----------------8--------------------------|
G|-----------------------------------------------------------|
D|-----------------------------------------------------------|
A|-----------------------------------------------------------|
E|-----------------------------------------------------------|

e|---10-11-11-11-----10-11-13-11---10-11-11-11-13-11-10-8-10-|
B|-8-------------9-9-------------8---------------------------|
G|-----------------------------------------------------------|
D|-----------------------------------------------------------|
A|-----------------------------------------------------------|
E|-----------------------------------------------------------|

Куплет 2:
   Cm         Fm
Я снова по ночной, 
A#             G         Cm
Перекрёсток давно уже пустой,
            Fm              G
Но слишком грустно и рано домой.
Cm             Fm   A#
Чувствую за спиной, город твой 
      G             Cm
Будто загрустил со мной,
             Fm            G
Но стрелки часов поверну назад.

Припев:
    Cm                 Fm
Набери мой номер, позвони мне срочно,
D#                         G
Напиши хоть строчку - я люблю тебя очень!
    Cm                 Fm
Набери мой номер, позвони хоть ночью,
D#                        G
Напиши хоть строчку - я хочу тебя очень!

    Cm                 Fm
Набери мой номер, позвони мне срочно,
D#                         G
Напиши хоть строчку - я люблю тебя очень!
    Cm                 Fm
Набери мой номер, позвони хоть ночью,
D#                        G
Напиши хоть строчку - я хочу тебя очень!

Outro: Cm Fm D# G }x2

e|---10-11-11-11---10-11-11-10-11---10-11-11-11-13-11-10-8-7-|
B|-8-------------9----------------8--------------------------|
G|-----------------------------------------------------------|
D|-----------------------------------------------------------|
A|-----------------------------------------------------------|
E|-----------------------------------------------------------|

e|---10-11-11-11-----10-11-13-11---10-11-11-11-13-11-10-8-10-|
B|-8-------------9-9-------------8---------------------------|
G|-----------------------------------------------------------|
D|-----------------------------------------------------------|
A|-----------------------------------------------------------|
E|-----------------------------------------------------------|
comments powered by Disqus
Наверх