Аккорды Монеточка - Ушла к реалисту

Добавлено: @romashka
Дата добавления: 24 Июня 2020г.
Рейтинг:
0.0
Просмотров: 19
Транспонировать - +
*** "СЛОЖНЫЕ" АККОРДЫ, ИСПОЛЬЗОВАННЫЕ В ПОДБОРЕ ***

   Em/G      Bb/D
E|-0---------1---------|
B|-0---------3---------|
G|-0---------3---------|
D|-----------0---------|
A|---------------------|
E|-3-------------------|


*** ВСТУПЛЕНИЕ ***

   Am                                Em/G                              G
E|---------------------------------|---------0-------------------0---|---------------------------------|
B|-1-----------1-----------1-------|-0---1-------0-----------0-------|-3-----------3-----------3-------|
G|---------2-----------2-------2---|---------------------0-----------|---------4-----------4-------4---|
D|-----2---------------------------|---------------------------------|-----5---------------------------|
A|-0---------------0---------------|---------------------------------|---------------------------------|
E|---------------------------------|-3---------------3---------------|-3---------------3---------------|

   F                                 Am                                Em/G
E|---------1-----------------------|---------------------------------|---------0-------------------0---|
B|-1-----------1-------------------|-1-----------1-----------1-------|-0---1-------0-----------0-------|
G|-----2-----------------------2---|---------2-----------2-------2---|---------------------0-----------|
D|-------------------------3-------|-----2---------------------------|---------------------------------|
A|---------------------3-----------|-0-----------0---0-----------0---|---------------------------------|
E|-1---------------1---------------|---------------------------------|-3---------------3---------------|

   G                                 F
E|---------------------------------|-----------------0---------------|
B|-3-----------3-----------3-------|-1-----------1-------------------|
G|---------4-----------4-------4---|---------2-----------------------|
D|-----5---------------------------|-----3---------------------------|
A|---------------------------------|---------------------------------|
E|-3---------------3---------------|-1-------------------------------|

*** 1 КУПЛЕТ ***

Am           Em/G       Em
Между многоэтажек и суеты

                F
Я нашел тебя – луч красоты

Am          Em/G        Em
Ты была нереальна, я хотел

                 F
Каждый день рисовать на холсте


Твои мысли, твои руки
Ты согласна завтра в пять
Мне позволить так, от скуки
Всю себя нарисовать.


Теплоту и нежность лета
Я создала в цветах
Шар – а в нем полоски света
Как в твоих глазах


Ты кричишь: Возьми обратно
Отвратительный портрет
Я модель, а не абстрактный
Желто-розовый предмет!


*** BRIDGE ***

Am                  G
   Думал, что ты догонишь

Em                                F
   Думал – со мной полетишь ввысь

Am                 G
   Но забыл про одно лишь

             Em           F
   В моде не авангард, а реализм


*** ПРИПЕВ ***

Am       Em   F           Bb/D     Am
  Растоптала масло, разорвала холсты

            Em      F                Bb/D    Am
  Но самой нежною краской, была нарисована ты

         Em     F            Bb/D          Am
  Развернется неистовый авангардный мой рай

        Em      F               Bb/D       Am
  Ты ушла к реалисту – дура, с ним и загнивай!

Am           Em       F
На-на-на-на-на-на-на-на-на.


*** 2 КУПЛЕТ ***

Знаю я, кто губы эти
Завтра воплотит в эскиз
Только знай: не все на свете
Нарисует реалист

Нарисует руки, ноги и оттенок глаз
Но сомненья и тревоги он не передаст!
Твоё сердце, твоё имя не перенесёт на лист
Потому что ты – богиня, он – обычный атеист


*** BRIDGE ***

Думал, что ты догонишь
Думал – со мной поле
Но забыл про одно лишь
В моде не авангард, а реализм


*** Припев ***

Растоптала масло, разорвала холсты
Но самой нежною краской была нарисована ты
Развернется неистовый авангардный мой рай
Ты ушла к реалисту – дура...

Растоптала масло, разорвала холсты
Но самой нежною краской была нарисована ты
Развернется неистовый авангардный мой рай
Ты ушла к реалисту – дура с ним и загнивай!
Наверх