Аккорды Motionless In White - Sinematic

Добавлено: @romashka
Дата добавления: 16 Июля 2021г.
Рейтинг:
0.0
Просмотров: 69
Транспонировать - +
Intro: 
 
E|--------------------------------------------------------------------0---|
B|-----------1-----1p0--------------0------------1-----1p0----------------|
G|---------0---0--------0---------0------------0---0--------0-------------|
D|-------2-------2--------2-----2------------2-------2--------2-----2-----|
A|-----2--------------------2-3------------2--------------------2-3-------|
E|---0-----------------------------------0--------------------------------|
 
E|----------------------------------------------------------------0-|
B|-----------1-----1p0--------------0------------1-----1p0--------1-|
G|---------0---0--------0---------0------------0---0--------0-----0-|
D|-------2-------2--------2-----2------------2-------2--------2---2-|
A|-----2--------------------2-3------------2--------------------2-3-|
E|---0-----------------------------------0------------------------0-|
 
Verse: 
Down strum quarter notes 
 
Am7 
The wall that I have built to keep you out is starting to rust 
Amsus7 
Because everything around me just reminds me of us. 
Am7 
I am an addict for dramatics, black hair and pale skin. 
Amsus7 
Yet I'm still collecting bones, but that's why closets are for skeletons 
 
Pre-chorus: 
Down strum Eighth notes 
 
Am                                 Amsus7 
Undress your body, hold it over my head 
            Am 
Because you know that if you knock then 
              Amsus7 
I will always let you in 
          Am7                                   Amsus7 
I've been numb for so long that I forgot how to feel 
           Am7 
So I don't care if it will break my heart, 
             Amsus7 
Just fuck me till we disappear 
 
Chorus: 
You'll just have to listen to get strumming pattern. Or create your own. 
 
Em 
You said you'd never hurt me 
Bm5 
Now this is all that we have left 
Bm3      G           Gsus4 
You were supposed to save me 
Em 
From myself 
 
E|----------------------------------------------------------------0-|
B|-----------1-----1p0--------------0------------1-----1p0--------1-|
G|---------0---0--------0---------0------------0---0--------0-----0-|
D|-------2-------2--------2-----2------------2-------2--------2---2-|
A|-----2--------------------2-3------------2--------------------2-3-|
E|---0-----------------------------------0------------------------0-|
 
 
Verse: 
Down strum quarter notes 
 
Am7 
The wall that I have built to keep you out has crumbled to dust 
Amsus7 
And I hope that everything you see reminds you of us 
 
Pre-chorus 
Down strum eighth notes 
 
Am7                                          Amsus7 
I've been gone for so long, I forgot what is real 
Am7                                                        Amsus7 
So I don't care if I will miss you, please just... til' we disappear 
 
Chorus: 
You'll just have to listen to get strumming pattern. Or create your own. 
 
Em 
You never said you'd hurt me 
Bm5 
Now this is all that we have left 
Bm3      G           Gsus4 
You were supposed to save me 
Em 
From myself 
Em 
You said you'd never love me 
Bm5 
But look how hard someone can fall 
Bm3     G         Gsus4 
I was supposed to save you 
Em 
From yourself 
 
Bridge: (x2)
Em Bm9 Bm7 Bm9 Bm7 Bm9 Bm7 Bm5 Bm3 Em Bm5 G Gsus4
 
Em 
 
Em 
Now the sky is on fire and we lie wide awake 
Bm5 
There is no other way than to make this mistake 
Bm3                                   G   Gsus4     Em 
We can't control who we hurt so we... the pain away 
Em 
So put all of your pride, all your guilt into me 
Bm5 
Suck the breath from my lungs and I'll swallow your hate 
Bm3                                G   Gsus4 
Can't control how we hurt so we... the pain away 
 
 
E|-------------------------------------0-|
B|-----------1-----1p0--------------0----|
G|---------0---0--------0---------0------|
D|-------2-------2--------2-----2--------|
A|-----2--------------------2-3----------|
E|---0-----------------------------------|

Em
Наверх