Аккорды «Motörhead»

Motörhead
Одна из наиболее харизматичных британских хард-рок-групп, оказавшая огромное влияние на развитие всей тяжёлой музыки, в частности, на возникновение спид-металла. Кроме того, Motörhead в свое время была признана «самой громкой группой» (мощность звука в децибелах). Многие звезды считают за честь сыграть с Motörhead на одной сцене, и концерты группы почти никогда не обходятся без присутствия специальных гостей. Так, во время концертов Motörhead на сцену с ними выходили музыканты из Guns N' Roses,… Читать полностью... Одна из наиболее харизматичных британских хард-рок-групп, оказавшая огромное влияние на развитие всей тяжёлой музыки, в частности, на возникновение спид-металла. Кроме того, Motörhead в свое время была признана «самой громкой группой» (мощность звука в децибелах). Многие звезды считают за честь сыграть с Motörhead на одной сцене, и концерты группы почти никогда не обходятся без присутствия специальных гостей. Так, во время концертов Motörhead на сцену с ними выходили музыканты из Guns N' Roses, Queen, Twisted Sister, Metallica, Scorpions, Iron Maiden, Accept, Sepultura, Girlschool, Ugly Kid Joe и многих других известных групп. Истоки Motörhead восходят к весьма "благообразной" прогрессивной группе Hawkwind, куда Ян "Лемми" Килмистер попал после многочисленных доисторических опытов, включая игру в эпатажной манчестерской команде The Rockin' Vickers и работу гитарным техником у самого Jimi Hendrix. В Hawkwind бывший гитарист Килмистер переключился на бас и быстро стал фронтменом. Как-то во время тура Лемми пытался провести наркосодержащее вещество через американо-канадскую границу, за что был арестован и посажен. Этим поводом воспользовались ревнивые ветераны Hawkwind, которым уже давно не нравился выскочка-басист, и Лемми был уволен. Несломленный Лемми собрал свой состав в Лондоне в 1975, назвав его Motörhead. Первоначально свой будущий коллектив Лемми хотел назвать Bastard, но менеджер музыканта настоял на изменении названия. Motörhead - это одноименная композиция Лемми для Hawkwind (на американском сленге означает "быстрый кайф"). Контракт с лейблом United Artists не принес ничего, кроме проблем: фирма никак не желала выпускать уже записанный к началу 1976 года материал. За это время состав уже успел поменяться: место ударника занял Фил "Filthy Animal" Тэйлор, Уэллиса сменил гитарист Эдди "Fast" Кларк. Фирма Chiswick Records, видя злоключения группы, предложила им выпустить сингл и предоставила студию на два дня, в течение которых Motörhead в порыве вдохновения записали весь материал альбома! Альбом Motörhead вышел в 1977 и сразу обратил на себя внимание. Видя успех команды, Chiswick Records в 1979 году издала-таки имевшийся у нее материал, назвав альбом On Parole. Но группа уже двигалась дальше на волне успеха диска Overkill (1979), выпущенного на фирме BronzeRecords. В конце 1979 года Motörhead выдали еще один альбом - Bomber. В том же году Лемми успел поработать с панками The Damned. В 1980 - новый успех - альбом Ace Of Spades стал "золотым". В конце того же года, в период временной нетрудоспособности Фила (перелом шейных позвонков в драке) группа записала миньон Valentines Day Massacre совместно с Girlschool. Яростную концертную мощь Motörhead без прикрас передал диск No Sleep 'Til Hammersmith (1981). В 1981 году команда отправилась завоевывать США, поддерживая Ozzy Osbourne. После записи LP Iron Fist (1982), объявил о своем уходе Эдди Кларк. На место Кларка позвали Брайана Робертсона (экс-Thin Lizzy), но тот не очень подходил группе своей мелодичной исполнительской манерой. В результате альбом Another Perfect Day (1983) стал для него единственной записью в составе группы. Далее группа обрела 2 гитаристов: Фила "Wizzo" Кэмпбэлла и Майкла "Wurzel" Бёрстона. Но тут ушел Тэйлор, а за ударной установкой оказался Пит Гилл (ex-Glitter Band/Saxon). В 1984 был выпущен двойной сборник No Remorse (1984) с 4 новыми композициями. Следующей студийной работой был Orgasmatron (1986). В 1987 году вернулся Фил Тэйлор, и был издан альбом Rock'N'Roll с более мягким звучанием, следом - концертник No Sleep At All (1988), который особого успеха не имел. Сенсацией стал альбом 1991 года 1916, который и критикой и публикой был единодушно признан одной из лучших работ группы. Следующий диск, March Or Die (1992) оказался примечателен появлением нового ударника, американца Микки Ди (ex-King Diamond). Среди альбомов 90-х годов выделяется также Bastards (1993). В 1996 году группу покинул Wurzel, и начиная с Overnight Sensation, команда вновь функционирует в своем классическом трио-виде. В 1997 Motörhead впервые посещают Россию. В мае 2000 года вышел We Are Motörhead и состоялось второе посещение России. 2002 - Альбом Hammered, 2004 - Inferno. 13 февраля 2005 Motörhead получили Грэмми в номинации Best Metal Perfomance. Среди причин популярности Motörhead стоит отметить великолепную работу на сцене, преданность стилю и умение сочинять запоминающиеся мелодии - последнее дается немногим металическим командам. Дискография: Motörhead - 1977 Overkill - 1979 Bomber - 1979 On Parole - 1979 (запись 1975) The Golden Years Live EP-1980 The Beer Drinkers EP - 1980 Ace Of Spades - 1980 St.Valentine`s Day Massacre - 1981 ( EP c GIRLSCHOOL) No Sleep Til Hammersmith - 1981 Stand By Your Man - 1982 (EP c PLASMATICS) Iron Fist - 1982 What's Word Worth (live) - 1983 Another Perfect Day - 1983 No Remorse - 1984(comp) Orgasmatron - 1986 Motorhead.Anthology - 1986(comp) Born to Lose - 1986(comp) Anthology Vol.1- 1986 (comp) Rock'n'Roll - 1987 The Collection - 1987 (comp) No Sleep At All - 1988 (Live) Blitzkrieg On Birmingam - Live`77-1989 The Birthday Party - 1990 (юбилейный концерт 1985 года) Dirty Love - 1990 (comp) Welcome To The Bear Trap - 1990 (comp) Lock Up Your Daughters - Live - 1990 Grind Ya Dawn - 1990 (comp) The Best Of & The Rest Of "Motorhead"Live-1990 From The Vaults - 1990 (comp) 1916 - 1991 Live`83 -1991 Meltdown (3LP Box) - 1991 Headbangers-1991(comp) The Best of Motorhead - 1991 (comp) (Ariola) March Or Die - 1992 Live Jailbait - 1992 The Best - 1992 (Roadrunner rec) `92 Tour(Live) - 1992 EP All The Aces - 1993 (comp) Bastards - 1993 Live at Brixton Academy (Live) - 1994 Fistful of Aces/The Best of Motorhead(2cd BOX) -1995 Sacrifice - 1995 Overnight Sensation - 1996 Motorhead - Live - 1996 Live - 1996 We`re Motorhead And We`re Gonna Kick Your Ass- 1996 (comp) Stone Deaf Forever - 1997 (comp) Protect the innocent (4cd Box) - 1997 Take no Prisoners (2cd) -1997 (comp) Snake Bite Love - 1998 King Bisquit Flower Hour Presents Motorhead (Live 1983)-1998 Everything Louder Than Everyone Else - 1999 (2 CD Live) Aces - The Best Of Motorhead - 1999 (comp) Born to Lose,Live to Win(The Bronze singles 1978 - 1983) (10 CD Box) -2000 (comp) We Are Motorhead - 2000 The Best Of Motorhead - 2000 (comp) The Chase Is Better Than the Catch - The Singles A`s & B`s - 2001(comp) Bite The Bullet - 2001 (comp) Over the Top - The Rarities - 2001 (comp) Hammered - 2002 The Bronze Age 1978 - 1982 (4cd limited edition Box) - 2002 Inferno - 2004 Live At Brixton Academy - 25 & Alive (2cd) - 2004 (юбилейный концерт 2000 года ) All the Aces (Comp.) 2006 (CD & DVD) Kiss Of Death - 2006 Better Motörhead Than Dead - Live At Hammersmith - 2007 Motörizer - 2008 The Wörld is Yours - 2010 Aftershock - 2013 Bad Magic - 2015 Состав: Lemmy Kilmister (вокал,бас гитара). Phil Campbell (лид гитара). Mikkey Dee (ударные). Бывшие участники: Larry Wallis (гитара 1975) . Lucas Fox (ударные 1975) . Phil "Philthy Animal" Taylor (R.I.P.) (ударные 1975-1984/1987-1992) . "Fast" Eddie Clarke (лид гитара 1976 - 1982) . Brian "Robbo" Robertson (лид гитара 1983-84) . Würzel (R.I.P.) (лид гитара 1984 - 1995) . Pete Gill (ударные 1986) . Скрыть...
Популярные аккорды Motörhead:
алфавиту | просмотрам | случайно
  • INTRO: - bass arr. for guitar play 4x
    |------------------------------------------------|
    |------------------------------------------------|
    |------------------------------------------------|
    |--2----2--2----2--2--2--2----2---2---2----0-----|
    |------------------------------------------------|
    |------------------------------------------------|
    
    guitar
    MAIN…
  • TUNNING: Dropped D
    (D,A,D,G,B,E)
    
    INTRO
    
    E-----------------------(------------------.)
    B-----------------------(------------------.)
    G-----------------------(------------------.)REPEAT 3 X
    D---1-----1-----1-1-----(---111---111------.)
    A---1-----1-----1-1-----(---111---111------.)
    D---1-----1-----1-1-----(---111---111------.)
    
    RIFF…
  • G          D                C
    When I was young I was the nicest guy I knew 
     G           F               C
    I thought I was the chosen one 
     G             D                               C
    But time went by and I found…
  • Bass Intro
    G|-0--------|-----------------| play the verse
    D|----------|-----------------| riff from here
    A|----------|-----------------| on until the
    E|----------|--3-3-3-3-3-33-33| fill (below)
    vol swell-
    
    Bass under 1st…
  • |---------------------------------------------------------------------------|
    |---------------------------------------------------------------------------|
    |---------------------------------------------------------------------------|
    |----------7-7----------------------7-7}let…
  • solo --
    eb|--------------------------------------------/----|
    Bb|----14b-------------12---------------12-14b/-14--|
    Gb|-12-14b-14p12-14p12-12---------------12-14b--14--|
    Db|------------------------14-12-14--14-------------|
    Ab|-------------------------------------------------|
    Eb|-------------------------------------------------|
    
    Eb|----------------------------------------|
    Bb|-12-14-12b------------12----12---12--12-|
    Gb|-12-14-12b----12--14b---14b---14b--14b--|
    Db|-----------14---------------------------|
    Ab|----------------------------------------|
    Eb|----------------------------------------|
    --…
  • Intro
    E7#9 C5 G5 A5
    1|-------|---------------------------------------|
    2|-------|-------8-------------------------------|
    3|-------|-------7-------------------------------|
    4|-------|-------6-----------------------5-----2-|
    5|-------|-------7------------------⁄⁄⁄--3--5--0-|
    6|-2-1-0-|-(0)----------------------⁄⁄⁄-----3----|
    
    Riff…
  • Main Riff
    3|---------------------------|
    4|-4-7-6--6-79--4-7-6-79-----|
    5|-2-5-4--4-57--2-5-4-57-----|
    6|---------------------------|
    
    While the lead guitar plays:
    
    1|-17^(19)------17^(19)------|
    
    Verse
    e|------------------------------|
    B|------------------------------|
    G|------------------------------|
    D|-4--7-6-7-4--7-6-7-4--7-6-79--|
    A|-2--5-4-5-2--5-4-5-2--5-4-57--|
    E|------------------------------|
    
    Chorus
    e|------------------------------------------------------------------|
    B|------------------------------------------------------------------|
    G|------------------------------------------------------------------|
    D|-55555555555555555555555555555555222222222222222222222222---------|
    A|-3333333333333333333333333333333300000000000000000000000055555555-|
    E|---------------------------------------------------------33333333-|
    
    -while…
  • Intro-repeat a few times
    e----------------------------------------------------------------
    b----------------------------------------------------------------
    g---------6h7p.o6--------6h7p.o6-----------5h6p.o5-------5h6p.o5-
    d----------------------------------------------------------------
    a-------6-------------6----------------4---------------4---------
    E---6-6-----------6-6--------------4-4-------------4-4-----------
    
    Verses
    e----------------------------------------------------------------
    b----------------------------------------------------------------
    g---------6h7p.o6-------6h7p.o6---------6h7p.o6---------6h7p.o6--
    d----------------------------------------------------------------
    a-------6-------------6---------------6---------------6----------
    E---6-6-----------6-6-------------6-6-------------6-6------------
    
    e----------------------------------------------------------------
    b----------------------------------------------------------------
    g---------4h5p.o4-------4h5p.o4---------4h5p.o4--------4h5p.o4---
    d----------------------------------------------------------------
    a-------4-------------4---------------4--------------4-----------
    E---4-4-----------4-4-------------4-4-------------4-4------------
    
    Chorus
    e----------------------------------------------------------------
    b----------------------------------------------------------------
    g----------------------------------------------------------------
    d----------------------------------------------------------------
    a---8888888-6666666-13-13-13-13-13-13--11-11-11-11-11-11-9999999-
    E---6666666-4444444-11-11-11-11-11-11--9--9--9--9--9--9--7777777-…
  • 1|---------------------------------------------------------------------------
    2|---------------------------------------------------------------------------
    3|---------------------------------------------------------------------------
    4|------------5--------------------------------------------------------------
    5|--------7---------------7--------------------------------------------------
    6|----0-----------6---5------------------------------------------------------
    
    
    Rhythm…
  • Tune down to Eb.
    
    Chords used:
    
    Am Em C G D F#7
    1|-0----0----0----0----2--------|
    2|-1----0----1----1----3--------|
    3|-0----0----0----0----2--------|
    4|-2----2----2----2----0----4---|
    5|-0----2----3----3---------4---|
    6|------0---------3---------2---|
    
    Verse…
  • solo 1
    eb|------------------------------------|
    Bb|------------------------------------|
    Gb|--7--9-9-9-9-9-9--7--9-9-9-9-9-9--7-|
    Db|------------------------------------|
    Ab|------------------------------------|
    Eb|------------------------------------|
    
    Eb|----------------------------------------------------|
    Bb|--------------------8-------------------------------|
    Gb|-9-9-9-9-9-9-9-9-9----9-7h9--7-9-9-9-9-9-9--7-9-9-9-|
    Db|----------------------------------------------------|
    Ab|----------------------------------------------------|
    Eb|----------------------------------------------------|
    
    Eb|-------------------------------------------------|
    Bb|------------------------8-10-10b--10b-10b-10p8---|
    Gb|-9-9-9--7--9-9-9-9-9-9-------------------------9-|
    Db|-------------------------------------------------|
    Ab|-------------------------------------------------|
    Eb|-------------------------------------------------|
    
    Eb|------------------------------------------|
    Bb|--8---------------------------------------|
    Gb|-----9--9p7---7~~~-9b--9b--9p7---7-9-9b-9-|
    Db|------------9------------------9----------|
    Ab|------------------------------------------|
    Eb|------------------------------------------|
    
    eb|-------------------------------------|
    Bb|-------------------------------------|
    Gb|-7---7-------------------------------|
    Db|---9---9--7---7----------------------|
    Ab|------------9---9--7----7------------|
    Eb|----------------------9---9--7--5--2-|
    
    Eb|---------------------------------------------------|
    Bb|-10b-10b-10b~~~--10bp8---8~~----12b-12b-12b--12-12-|
    Gb|-12b-12b-12b~~~--------9--------14b-14b-14b--------|
    Db|---------------------------------------------------|
    Ab|---------------------------------------------------|
    Eb|---------------------------------------------------|
    
    Eb|--------------------------------------------------------------------------|
    Bb|---------------------10b-10b-10b~~~--10bp8---8~~---10b-10b-10b--8-8-------|
    Gb|-14--12-14--12~~~~---12b-12b-12b~~~--------9-------------------------7~~~-|
    Db|--------------------------------------------------------------------------|
    Ab|--------------------------------------------------------------------------|
    Eb|--------------------------------------------------------------------------|
    
    eb|-------------------------------------------------------|
    Bb|-------------------------------------------------------|
    Gb|--7--9-9-9-9-9-9--7--9-9-9-9-9-9--7--9-9-9-9-9-9-9-9-9-|
    Db|-------------------------------------------------------|
    Ab|-------------------------------------------------------|
    Eb|-------------------------------------------------------|
    
    Eb|---------------------------------|
    Bb|-8-------------------------------|
    Gb|-7-9-7h9--7-9-9-9-9-9-9--7-9-9-9-|
    Db|---------------------------------|
    Ab|---------------------------------|
    Eb|---------------------------------|
    
    Eb|---------------|
    Bb|---------------|
    Gb|-9-9-9---------|
    Db|---------9-----|
    Ab|---------7-8-7-|
    Eb|-----------6-5-|
    
    solo…
  • Tune Gtr to Eb
    
    
    Riff A
    |------------------------------|
    |------------------------------|
    |--9-9-x-x-x--9-9-x-x-x--7-----|
    |--9-9-x-x-x--9-9-x-x-x--7-----|
    |--7-7-x-x-x--7-7-x-x-x--5-----|
    |------------------------------|
    
    Riff…
  • Tune down to Eb
    Intro
    1|----------------------------|
    2|-3--------33----3--------33-|
    3|-2--------33----2--------33-|
    4|-0-0000000---0000-0000000---|
    5|----------------------------|
    6|----------------------------|
    
    Main…
  • EDE (x4)
    
    (Verse 1.)
    E D E E D E
    New York City, N.Y.C.,
    D A
    Pretty mean when it wants to be,
    ED E E D E
    Black leather, knee-hole pants,
    D A
    Can't play no high school dance,
    A B
    Fuzz tone, hear 'em go, hear 'em on the radio,
    
    (Chorus.)
    A
    Misfits,…
  • Intro
    E|------------------------------|
    B|------------------------------|
    G|------------------------------|
    D|------------------------------|
    A|-----7--7-------5-------------|
    E|-0-0------5h--7----5h-7p-5p-3-|
    
    vers riff
    
    repeat
    E|-------------------------------|
    B|-------------------------------|
    G|-------------------------------|
    D|-------------------------------|
    A|--7-7-9-9---7-7-9-9------5---5-|
    E|--5-5-5-5---5-5-5-5------3---3-|
    
    E|------------------------------|
    B|------------------------------|
    G|------------------------------|
    D|------------------------------|
    A|-----7--7-------5-------------|
    E|-0-0------5h--7----5h-7p-5p-3-|
    
    Chorus
    E|-------------------------------------------------|
    B|-------------------------------------------------|
    G|-------------------------------------------------|
    D|-------------------------------------------------|
    A|--7-7--9-9---7-7--9-9-----9-9-11-11--7---------5-|
    E|--5-5--5-5---5-5--5-5-----7-7--7--7--5-/19⁄7---3-|
    
    E|------------------------------|
    B|------------------------------|
    G|------------------------------|
    D|------------------------------|
    A|-----7--7-------5-------------|
    E|-0-0------5h--7----5h-7p-5p-3-|
    
    Pre…
  • Tune down to Eb
    
    A fairy easy and cool song from the iron fist album, and
    it's one of the song with the best lyrics ever.
    The Bass follows Guitar 1 (approximately)
    
    Riff A (Guitar 1)
    1|--------------------------|
    2|--------------------------|
    3|--------------------------|
    4|--------------------------|
    5|-0-0-2-0-3-0-3-2-0-0-2-3--|
    6|--------------------------|
    
    Riff…
  • Chords
    E5 A5 C#5 F#5 C5 D5
    |---------------------------------------------------------------------------|
    |---------------------------------------------------------------------------|
    |---------------------------------------------------------------------------|
    |--------2----6-----------5----7--------------------------------------------|
    |--7-----0----4-----4-----3----5--------------------------------------------|
    |--0----------------2-------------------------------------------------------|
    
    E5
    I…
  • INTRO (0:00 - 0:20)
    E|---------------------------------------------------------------------|
    B|---------------------------------------------------------------------|
    G|---------------------------------------------------------------------|
    D|-2~----------------------------------------------2-2--2-2--2-2--2--2-|
    A|-2~----------------------------------------------2-2--2-2--2-2--2--2-|
    D|-2~----------------------------------------------2-2--2-2--2-2--2--2-|
    Behold…
  • Intro (8 times)
    e|--------------------|
    B|--------------------|
    G|-2-2----------------|
    D|-2-2----------------|
    A|-0-0---0---0-2------|
    E|---------3-----3-0--|
    .
    
    verse (2 times)
    e|---------------------------------------------|
    B|---------------------------------------------|
    G|---------------------------------------------|
    D|2-2-2-2-2-2-2-2-2-2-2-2-2-2-2-2--------------|
    A|0-0-0-0-0-0-0-0-0-0-0-0-0-0-0-0--0---0-2-----|
    E|-----------------------------------3-----3-0-|
    
    Pre-chorus
    1st…
  • Intro:
    
    E I--------------------------------------------------------------|
    B I--------------------------------------------------------------|
    G I--------------------------------------------------------------|
    D I--6-7-7-7-7-7-7--6-7-7-7-7-7-7--------------------------------|
    A…
  • Tune down to Eb/D# (half a step)
    
    Chords used.
    e|--------------------------------------|
    B|--------------------------------------|
    G|----------------(7)--(9)--(11)--(12)--|
    D|-(4)--(7)--(9)---7----9----11----12---|
    A|--4----7----9----5----7----9-----10---|
    E|--2----5----7-------------------------|
    F#I…
  • Tuning: Eb
    
    Riff one:
    Gb Gb
    ------------------------|
    ------------------------|
    ------12-------1212-----| play 8 times
    ------12-------1212-----|
    ------10-------1010-----|
    -0000----0-000----------|
    
    
    Riff two:
    
    ------------------------|
    ------------------------|
    ------------------------|…
  • verse:
    ----------------------------------------|
    ----------------------------------------|
    ----------------------------------------|
    -6-6-9-6--6-4-6-9-6-4-6--6-9-6-9-6-4-6--| play last part twice
    -6-6-9-4--6-4-6-9-6-4-6--6-9-6-9-6-4-6--|
    -4-4-7-4--4-2-4-7-4-2-4--4-7-4-7-4-2-4--|
    
    chorus…
  • Tune to Eb.
    
    
    Intro/Verse
    -------------------|
    -2-0-2-00-2-0-2-00-|
    -------------------|
    -------------------|
    
    Pre
    ------------|
    ------------|
    ------------|
    -5---0-0-0--|
    
    Chorus
    -------------------|
    -------------------|
    -3----5------------|
    -------------------|
    
    
    Solo
    -----------------------|
    -----------------------|
    -2-2-2-2-2-------------|
    ------------2-2-2-2-2--|
    
    -------------------|
    -------------------|
    -5------7----------|
    -------------------|
    
    
    Ending
    ----------|
    ----------|
    -7-5--7---|
    ----------|…
  • Standard Tuning
    
    Bass Intro rhythm for solo below
    G|-----------------|-----------------|-----------------|-----------------|
    D|-----------------|-----------------|-----------------|-7---------------|
    A|-7---------------|-3---------------|-2---------------|-5------/7-------|
    E|-5-------------x-|-1-------------x-|-0-------------x-|-----------------|
    
    G|-----------------|-----------------|-----------------|-----------------|
    D|-----------------|-----------------|-----------------|-----------------|
    A|-2---------------|-3---------------|-5---------------|-7---------------|
    E|-0-------------x-|-1-------------x-|-3-------------x-|-5---------------|
    
    Intro…
  • Intro X2
    E|--------------------|
    B|--------------------|
    G|--9-----7-----------|
    D|--7-----5---------5-|
    A|---------------0--3-|
    E|--------------------|
    
    E|----------------------------------------------------------|
    B|----------------------------------------------------------|
    G|--9-----7------------------------------------------5------|
    D|--7-----5---------5----7----------------5---7-----------7-|
    A|---------------0--3----5-------5---7----------------------|
    E|----------------------------------------------------------|
    
    Verse:
    "Another…
  • RIFF
    |----------------------------------------------------------------|
    |----------------------------------------------------------------|
    |--------------------------------------------11------12----------|
    |----------------5-------------5-------------11------12----------|
    |--5h7-------------7-------------7-----------9---9-9-10---10-9---|
    |------0-0-0-0-0-----0-0-0-0-0-----0-0-0-0-0---------------------|
    PM.......…
  • Intro
    1|--------------------|------------------------|
    2|--------------------|------------------------|
    3|---------------5-7--|---------------7--------|
    4|---------------5-7--|---------------5-7-5-7--|
    5|-5-7-7-7-7-7-7------|-5-7-7-7-7-7-7---5-3-5--|
    6|-0---0-0-0-0-0------|-0---0-0-0-0-0----------|
    
    
    Riff…
  • Riff A
    e|-----------------------------|
    B|-----------------------------|
    G|-----------------------------|
    D|-------------------------7---|
    A|-------------------------5---|
    E|000000000000000000-etc-00----|
    ......pm.................
    
    Riff…
  • Intro
    1-|--------------------------------------------------------------------
    2-|--------------------------------------------------------------------
    3-|-5/7-7-8-8-10-10-8-8-7-7-8-8-10-10-8-8-7-7-8-8-7-7⁄5-5⁄3-3-3-3-3-3-3
    4-|--------------------------------------------------------------------
    5-|--------------------------------------------------------------------
    6-|--------------------------------------------------------------------
    
    Main…
  • Tune down to Eb.
    
    Main Riff
    e|------------------------------------|
    B|------------------------------------|
    3|------------------------------------|
    4|---9--7-9---------5-----7-9---------|
    5|---7--5-7-050575------7-5-7-0505750-|
    6|-00--0------------------------------|
    
    Verse
    1|-------------------------------|
    2|-------------------------------|
    3|-------------------------------|
    4|---9--9--7--9--9----9--9-7-----|
    5|---7--7--5--7--7----7--7-5-----|
    6|-00--0--0--0------00--0--------|
    
    Chorus
    1|----------------------------------------------|
    2|----------------------------------------------|
    3|-------2----------2----------2----------2-----|
    4|-----2---2------2---2------2---2------2---2---|
    5|--0--------0----------------------------------|
    6|-------------3--------3-2--------2-3--------3-|
    
    Fill
    1|---------------|
    2|---------------|
    3|-7^75----------|
    4|-----75--------|
    5|-------757-----|
    6|---------5-----|
    
    Bridge
    1|---------------|
    2|---------------|
    3|---------------|
    4|-9-99-99-97777-|
    5|-7-77-77-75555-|
    6|---------------|…
  • e|-----------------|
    B|-----------------|
    G|--------------5--|
    D|--------7--9--5--|
    A|--3--7--5--7-----|
    E|--1--5-----------|
    F A D E C
    
    -=INTRO=-
    AFDE x2
    
    Intro Solo
    A F
    e|--20-17-20-17-20-17-19-15-17-15^~-⁄8-10/11⁄10-8-10~---8-10-----------|
    B|-----------------------------------------------------------8-8h10~-⁄-|
    G|---------------------------------------------------------------------|
    D|---------------------------------------------------------------------|
    A|---------------------------------------------------------------------|
    E|---------------------------------------------------------------------|
    
    D
    e|---------------------------------------------------------|
    B|---------------------------------------------------------|
    G|-/4-5-7^--7-5-4-7~----5---------------------------7-9-5~-|
    D|------------------------7-10-7-7-10-7-10-7-7-10-7--------|
    A|---------------------------------------------------------|
    E|---------------------------------------------------------|
    
    
    E
    e|--------------------------------------|
    B|--------------------------------|
    G|-7-5-7^--------------7~-⁄-|
    D|------(hold…
  • Chords used
    
    
    Em D C cadd9 Am G B Bb F#
    |--0-----2-----0-----0-----0-----3-----2-----1-----2-----------|
    |--0-----3-----1-----3-----1-----0-----4-----3-----2-----------|
    |--0-----2-----0-----0-----2-----0-----4-----3-----3-----------|
    |--2-----0-----2-----2-----2-----0-----4-----3-----4-----------|
    |--2-----------3-----3-----0-----2-----2-----1-----4-----------|
    |--0-----------------------3-----2-----------------2-----------|
    
    
    Riff:
    
    Em…
  • Tune Gtr to Eb
    
    
    Riff A
    |--------------------------|
    |--------------------------|
    |--------------------9-9---|
    |--------------------9-9---|
    |--------------------7-7---|
    |--0--0-3-0-5-0-3-0--------|
    
    Riff B.1
    |---------------------------------------------------|
    |---------------------------------------------------|
    |---------------------------------------------------|
    |--7-7--9-9-9--7-7--9-9-9--7-7--9-9-9--------9------|
    |--7-7--7-7-7--7-7--7-7-7--7-7--7-7-7---7-7--7--9---|
    |--5-5---------5-5---------5-5----------5-5-----7---|
    
    Riff…
  • INTRo:
    E|------------------|-----|--3--|
    B|--3p2-------------|-----|--5--|
    G|2-----2--------2--|--5--|--5--|
    D|2-------2----2----|--5--|--5--|
    A|0----------0------|--3--|--3--|
    E|------------------|-----|-----|
    
    E|-3---------------------------------------------------------|
    B|-5---------------------------------------------------------|
    G|-5------------0-------0--2------------0-------0--2--2--0h2-|
    D|-5----------0-------0----2----------0-------0----2--2--0h2-|
    A|-3--------2-------0------0--------2-------0------0--0--0---|
    E|----0-2-3-------2-----------0-2-3-------2------------------|
    
    VERSE:
    E|------------------|-----|--3--|-3-------------------------|
    B|--3p2-------------|-----|--5--|-5-------------------------|
    G|2-----2--------2--|--5--|--5--|-5------------0-------0--2-|
    D|2-------2----2----|--5--|--5--|-5----------0-------0----2-|
    A|0----------0------|--3--|--3--|-3--------2-------0------0-|
    E|------------------|-----|-----|----0-2-3-------2----------|
    
    CHoRUS:
    
    Em…
  • Tuning: Drop Db (Eb tuning, lower Eb down 2 steps)
    
    
    Riff one:
    
    -------------------------------------------|
    -------------------------------------------|
    -------------------------------------------|
    -0-x-3--4-3-0-x-3--4-3-0-x-3--4-3-0-x--4-3-|
    -0-x-3--4-3-0-x-3--4-3-0-x-3--4-3-0-x--4-3-|
    -0-x-3--4-3-0-x-3--4-3-0-x-3--4-3-0-x--4-3-|
    
    play…
  • Tuning: Eb
    
    
    Riff one:
    Eb Db Eb
    --------------------|
    --------------------|
    ----7--9---7-9--7---| play 6 times
    -2--7--9---7-9--7---|
    -2--5--7---5-7--5---|
    -0------------------|
    
    stum first chord two times in the beginning.
    
    
    Riff…
  • Tune down to Eb (down half a step)
    
    Intro
    e|-----------------------------------------|
    B|-----------------------------------------|
    G|-----------------------------------------|
    D|-9-12-9-12-9-12-9-14-9-12-9-12-9-12-9-14-|
    A|-7-10-7-10-7-10-7-12-7-10-7-10-7-10-7-12-|
    E|-----------------------------------------|
    
    Riff…
  • Intro/Verse/1st chorus
    
    *Note* Palm mute the open Ab notes
    
    -----------------------------------------------------
    -----------------------------------------------------
    -------7-7-5---7-7-5-------5-------------------------
    -------7-7-5---7-7-5---5h7---------------------------
    ---0-0-------0-------0-------------------------------
    -----------------------------------------------------
    
    Pre-chorus
    
    *Note*…
  • Main Riff:
    1|------------------------------------------
    2|------------------------------------------
    3|------------------------------------------
    4|------------------------------------------
    5|------------------------------------------
    6|-0-2-2-2-2-0-2-2-2-2-5-2-2-2-2-0-2-2-2-0-0
    
    Chorus
    1|-------------------|----------------------------------------------
    2|-------------------|----------------------------------------------
    3|----------3--------|------4----5----7----55555-77777-55555-77777--
    4|-3----5---3---4----|-3----4----5----7----55555-77777-55555-77777--
    5|-3----5---1---4----|-3----2----3----5----33333-55555-33333-55555--
    6|-1----3-------2----|-1--------------------------------------------
    
    Solo…
  • Bass Intro
    G|--9-9-9-9-9-9-9-9-9-9---7-----------------|
    D|------------------------------------------|
    A|------------------------------------------|
    E|------------------------------------------|
    
    G|--9-9-9-9-9-9-9-9-9-9---7-----------------|
    D|------------------------------------------|
    A|------------------------------------------|
    E|------------------------------------------|
    
    G|--9--7---9--7---9--7----9-9----9----7-----|
    D|------------------------------------------|
    A|------------------------------------------|
    E|------------------------------------------|
    
    Riff…
  • Tune down to Eb (down half a step)
    
    Verse - Clean tone Verse Ending
    1|-----------------|-----------------|
    2|-----1-------1---|-----1-----1-----|
    3|---2-------2-----|---2-----2-----2-|
    4|-2-----2-0-----0-|-2-----2-----2---|
    5|-----------------|-----------------|
    6|-----------------|-----------------|
    This…
  • eb|-----------------------|
    Bb|---5----7-5--5-7p5-----|
    Gb|---5-5--7-5--5-7p5-----|
    Db|---------------------7-|
    Ab|-----------------------|
    Eb|-----------------------|
    
    eb|---------------------------------------|
    Bb|-------------------5----7-5--5-7p5-----|
    Gb|-------------------5-5--7-5--5-7p5-----|
    Db|------7------7-----------------------7-|
    Ab|-0-0----0-0-----0----------------------|
    Eb|---------------------------------------|
    
    eb|----0---------------------------|
    Bb|----0---------------------------|
    Gb|--------------------------------|
    Db|-2----2-2-2--3--3--3-3-3--3-3-3-|
    Ab|-2----2-2-2--3--3--3-3-3--3-3-3-|
    Eb|-0----0-0-0--1--1--1-1-1--1-1-1-|
    
    Eb|-------------|
    Bb|-------------|
    Gb|-------------|
    Db|--5-5-5-5-5--|
    Ab|--5-5-5-5-5--|
    Eb|--3-3-3-3-3--|
    
    eb|---------------------------------------|
    Bb|-------------------5----7-5--5-7p5-----|
    Gb|-------------------5-5--7-5--5-7p5-----|
    Db|------7------7-----------------------7-|
    Ab|-0-0----0-0-----0----------------------|
    Eb|---------------------------------------|
    
    eb|----0---------------------------|
    Bb|----0---------------------------|
    Gb|--------------------------------|
    Db|-2----2-2-2--3--3--3-3-3--3-3-3-|
    Ab|-2----2-2-2--3--3--3-3-3--3-3-3-|
    Eb|-0----0-0-0--1--1--1-1-1--1-1-1-|
    
    eb|-------------|
    Bb|-------------|
    Gb|-------------|
    Db|--5-5-5-5-5--|
    Ab|--5-5-5-5-5--|
    Eb|--3-3-3-3-3--|
    
    eb|---------------------------------------|
    Bb|-------------------5----7-5--5-7p5-----|
    Gb|-------------------5-5--7-5--5-7p5-----|
    Db|------7------7-----------------------7-|
    Ab|-0-0----0-0-----0----------------------|
    Eb|---------------------------------------|
    
    solo
    eb|---------------------------------------------------|
    Bb|---------------------------------------------------|
    Gb|-7b-7b--7b-7b--7b-7b--7b--7b-7b-7b-7b--7b--7b-7b---|
    Db|---------------------------------------------------|
    Ab|---------------------------------------------------|
    Eb|---------------------------------------------------|
    
    Eb|----------------------------------------|
    Bb|-10p8---8-10p8---8-10-8----------5--7-5-|
    Gb|------9--------9--------9-7--5-7-5--7-5-|
    Db|----------------------------------------|
    Ab|----------------------------------------|
    Eb|----------------------------------------|
    repeat…
  • Tune down to Eb.
    
    Intro (2nd time add vibrato to last note)
    1|---------------------|
    2|---------------------|
    3|---------------------|
    4|---------------------|
    5|-5-4-3-2--5-4-3-2----|
    6|------------------3--|
    
    Fill
    
    1|--------------------------------------------------|
    2|--------------------------------------------------|
    3|-2-----------2-----------2-----------2------------|
    4|-2-----------2-----------2-----------2------------|
    5|-0-----------0-----------0-----------0------------|
    6|--------------------------------------------------|
    
    Riff…
  • Riff A
    e|-----------------|
    B|-----------------|
    G|-----------------|
    D|-9-9-99127-7-777-|
    A|-7-7-77105-5-555-|
    E|-----------------|
    Where it says 'loose' in the song structure, play this
    muted in a 'laid back' style (listen…
  • Intro and Verse(I think That somethin fails in here)
    (repeatx3) Last Time
    e|-------------------------|---------------------|
    B|-------------------------|---------------------|
    G|-------------------------|---------------------|
    D|-----2-3-2-------2-3-2---|-----2-3-2--------2--|
    A|---0-------0---0-------0-|---0-------0----0----|
    E|-0-----------2-----------|-0------------2------|
    
    Pre-Chorus
    e|-------------------|-------------------|
    B|-------------------|-------------------|
    G|-2---2---2---2-2-2-|-2---2---2---2-5-6-|
    D|-2---2---2---2-2-2-|-2---2---2---2-5-6-|
    A|-0---0---0---0-0-0-|-0---0---0---0-3-4-|
    E|-------------------|-------------------|
    
    
    Chorus
    e|---------------------------------------|
    B|---------------------------------------|
    G|----7--5--3-5--7---5--3--5--7--5--3----|
    D|----7--5--3-5--7---5--3--5--7--5--3----|
    A|----5--3--1-3--5---3--1--3--5--3--1----|
    E|---------------------------------------|
    these…
  • Intro
    e|-------------------------------------|
    B|-------------------------------------|
    G|--------5-7--7-7-55-------5-7--------|
    D|----5-7-5-7--7-7-55---5-7-5-7--------|
    A|-5-7---------------5-7---------------|
    E|-------------------------------------|
    
    Main…
  • Gtr I (Eb Ab Db Gb Ab Eb)
    
    
    Intro & Chorus
    Tempo=150
    4/4
    
    ||----------------------|-----------------|
    ||o---------------------|-----------------|
    ||----------------------|---------------0-|
    ||------2-(2)⁄---2---2⁄-|-----2⁄----0-----|
    ||o---------------------|---------1---1---|
    ||--0-0--------0---0----|-0-0-------------|
    
    
    |---------------------|------------------||
    |---------------------|-----------------o||
    |---------------------|---------------2--||
    |-----2-(2)⁄---2---2⁄-|-----2⁄----0------||
    |---------------------|---------1---1---o||
    |-0-0--------0---0----|-0-0--------------||
    
    
    Verse
    Eb5…
  • Tune down to Eb.
    
    Intro
    e|----------|
    B|----------|
    G|----------|
    D|---012345-|
    A|-34-------|
    E|----------|
    
    Verse
    e|-----------------------------------------|
    B|-----------------------------------------|
    G|-----------------------------------------|
    D|-5-2-5-2---5-2-5-2---5-2-5-2---5-2-5-7---|
    A|-3-0-3-0---3-0-3-0---3-0-3-0---3-0-3-5---|
    E|-----------------------------------------|
    
    Chorus
    e|--------------------------------------------------------------|
    B|--------------------------------------------------------------|
    G|--------------------------------------------------------------|
    D|---------77----------------77----------77--------------012345-|
    A|-22------55----22------55--55--22------55----22------34-------|
    E|-00------------00------33------00------------00---------------|
    
    Bridge
    e|-------------------------------------------|
    B|-------------------------------------------|
    G|-----------------------------------7-9-7-5-|
    D|-5-2-5-2---7-4-7-4---107-107---107-5-7-5-3-|
    A|-3-0-3-0---5-2-5-2---8-5-8-5---8-5---------|
    E|-------------------------------------------|
    
    Solo…
  • Tuning: Eb
    
    Riff 1:
    Eb F Ab F Eb F
    ------------------------------
    ------------------------------
    -9/11-xxxx-14⁄11-xxxx-9/11----
    -9/11-xxxx-14⁄11-xxxx-9/11----drumroll
    -6/9--xxxx-12⁄9--xxxx-6/9-----
    ------------------------------
    
    repeat…
  • Main Riff
    3x 1x repeat
    |----------------------|-------------------------|
    |----------------------|-------------------------|
    |----------------------|-------------------------|
    |-------------------2--|-------------------------|
    |---------2-2-3-3-4----|---------2-2--2-3-2------|
    |--2-2-5---------------|--2-2-5-------------5----|
    
    
    Chorus
    |----------------------|--------------------------|
    |----------------------|--------------------------|
    |----------------------|--------------------------|
    |--2--2-------2---/----|--2--2-------2-------5-7--|
    |--0--0-------0---/----|--0--0-------0---5-7------|
    |--------3-3----------|--------3-3----------------|
    
    |----------------------|------------------------------|
    |----------------------|------------------------------|
    |----------------------|------------------------------|
    |--2--2-------2---/----|--2--2-------7-5--------------|
    |--0--0-------0---/----|--0--0-----------7-6-5--3-----|
    |--------3-3-----------|--------3-3-------------------|
    
    
    Half…
  • - Intro -
    
    --11/1-0-3h6h5-0-2h5h4-0-0-0-0-0-3h6h5-0-2h5h4-----|
    --11/1-0-5h8h7-0-4h7h6-0-0-0-0-0-5h8h7-0-4h7h6-0---|
    --11/1-----------------------------------------0---|
    -----------------------------------------------0---|
    ---------------------------------------------------|
    ---------------------------------------------------|
    |-------------------repeat…
  • Tune down to Eb.
    
    Intro Riff (x4)
    Play this using your neck pickup. with the volume on the guitar turned down,
    then crank it up after 4th repetition.
    E|-------|
    B|-14-12-|
    G|-14-12-|
    D|-------|
    A|-------|
    E|-------|
    
    Main/Chorus…
  • Tune down to Eb (half a step)
    
    1|-------------|
    2|-------------|
    3|-------------|
    4|-----7--9----|
    5|--7--5--7--4-|
    6|--5--------2-|
    A D E F#
    
    -=INTRO=-
    DE x4
    
    -=VERSE1=-
    D E
    Nobody gives a damn about anybody else,
    D E
    Think…
  • Verse variation A
    
    e|--------------------------------|--------------------------------|
    B|--------------------------------|--------------------------------|
    G|-----5-----5-----5-------5-7-7~-|-----5-----5-----5-------5-5~---|
    D|-----5-----5-----5-------5-7-7~-|-----5-----5-----5-------5-5~---|
    A|-0-0---0-0---0-0---0-0-0--------|-0-0---0-0---0-0---0-0-0--------|
    E|--------------------------------|--------------------------------|
    Verse…
  • play Intro x4
    and Verse x2
    
    e|-----------| |-----------|
    B|-----------| |-----------|
    G|-7-9-------| |-7-9-------|
    D|-7-9-------| |-7-9-------|
    A|-5-7-------| |-5-7-------|
    E|-----------| |-----------|
    
    Pre-chorus
    e|-----------|-----------|-----------|-----------|
    B|-----------|-----------|-----------|-----------|
    G|-9---------|-----------|-5---------|-7---------|
    D|-9---------|-7---------|-5---------|-7---------|
    A|-7---------|-7---------|-3---------|-5---------|
    E|-----------|-5---------|-----------|-----------|
    
    Chorus…
  • Tune down to Eb.
    
    Intro (with verse in background)
    1|----------------------------|
    2|----------------------------|
    3|----3----5----3-------------|
    4|----3----5----3-----3-5-3---|
    5|----------------3-5-------5-|
    6|-333--333--333--------------|
    
    Verse
    1|---------------------|
    2|---------------------|
    3|----3----5----3---55-|
    4|----3----5----3---55-|
    5|---------------------|
    6|-333--333--333--33---|
    
    Chorus
    1|---------------------------------------|
    2|---------------------------------------|
    3|---------------------------------------|
    4|---------------------------------------|
    5|-9-9-7-9--9-9-7-99-77-7-77-7-77-7-77-7-|
    6|-7-7-5-7--7-7-5-77-55-5-55-5-55-5-55-5-|
    
    1|-------------------------------------------------------|
    2|-------------------------------------------------------|
    3|-------------------------------------------------------|
    4|-1010-10-1010-10-1010-10-1010-10-99-9-99-9-99-9--------|
    5|--8-8--8--8-8--8--8-8--8--8-8--8-77-7-77-7-77-7---575--|
    6|------------------------------------------------57---7-|
    
    Bridge…
  • Tuning: Eb
    
    
    Riff A
    
    Gb
    -----------------------------|
    -----------------------------|
    -----------------3-----------|make raw sound
    --5~p3h5p3h5p3---3-----------|
    ---------------5-------------|
    3----------------------------|
    
    
    ----------------------|
    ----------------------|
    ----------------------|
    --5~p3h5p3h5p3--------|
    ---------------5------|
    3----------------6----|
    
    Riff…
  • Fill A
    e|-----|
    B|-----|
    G|-----|
    D|-777-|
    A|-555-|
    E|-----|
    
    
    Riff A
    e|------------------|
    B|------------------|
    G|------------------|
    D|--------------777-|
    A|-7--7-7-7-7-7-555-|
    E|-5--5-5-5-5-5-----|
    
    
    Riff B
    e|------------------|
    B|------------------|
    G|------------------|
    D|------------------|
    A|-5--5-5-5-5-5-333-|
    E|-3--3-3-3-3-3-111-|
    
    
    Riff…
  • Intro/Verse
    -----------|
    -----------|
    -----------|
    -0---------|
     Let Ring
    
    
    Pre
    -------------------------------|
    -------------------------------|
    -5/7-7---7-------5/7-7---7-----|
    -------0----0-0--------0----1--|
    
    
    Chorus
    ---------------------------------|
    ---------------------------------|
    ----------------------------3-2--|
    -0---3-5*--3-1--0-1-0-1-0-1------|…
  • Tuning: Eb
    
    Riff 1:
    
    ---------------------------------------
    ---------------------------------------
    ---------------------------------------
    -----4---55----4-5----2-4---55---5⁄4-2-
    -----4---55----4-5----2-4---55---5⁄4-2-
    -⁄00-2-0-33-000203-0000-2-0-33-003⁄2-0-
    ..…
  • Tune down to Eb (half a step)
    
    Intro
    1|---------------------------|---------------------------|
    2|---------------------------|---------------------------|
    3|--------------------5-7-5--|--------------------5-7-5--|
    4|-----7~----7~----7--5-7-5--|-----7~----7-----7~-5-7-5--|
    5|-0000--0000--0000----------|-0000--0000--0000----------|
    6|---------------------------|---------------------------|
    
    Verse
    1|-------------------|
    2|-------------------|
    3|------5-7----------|
    4|------5-7------5-7-|
    5|-0000-----0000-----|
    6|-------------------|
    
    Chorus
    1|---------------------------------|-------------------------------|
    2|--play-this-bit-three-times------|-------------------------------|
    3|---------------------------------|-------------------------------|
    4|-5/7-7-7-7-7-7-7-7-7-7-7-7-7-7-5-|-5/7-7-7-7-7-7-7-9-9-9-9-9--9⁄-|
    5|-3/5-5-5-5-5-5-5-5-5-5-5-5-5-5-3-|-3/5-5-5-5-5-5-5-7-7-7-7-7--7⁄-|
    6|---------------------------------|-------------------------------|…
  • Eb Tuning
    
    e|-------------------------------------------|
    B|-------------------------------------------|
    G|-9-9-7-9-x-x-9-9-7-9-x-x-9-9-7-9-x-x-9-9-7-|
    D|-9-9-7-9-x-x-9-9-7-9-x-x-9-9-7-9-x-x-9-9-7-|
    A|-7-7-7-7-x-x-7-7-7-7-x-x-7-7-7-7-x-x-7-7-7-|
    E|-------------------------------------------|
    
    E|-------------------------------------------|
    B|-------------------------------------------|
    G|-9-x-x-9-9-7-9-x-x-9-9-7-9-x-x-9-9-7-9-x-x-|
    D|-9-x-x-9-9-7-9-x-x-9-9-7-9-x-x-9-9-7-9-x-x-|
    A|-7-x-x-7-7-7-7-x-x-7-7-7-7-x-x-7-7-7-7-x-x-|
    E|-------------------------------------------|
    
    =======================================================
    (I'm…
  • Intro h = hold
    
    E--------------------------------------------------I
    B--------------------------------------------------I
    G--------------------------------------------------I
    D--------------------------------------------------I
    A--6h---6--6-6--6-6h---6--6-6--6-6h---6--6-6--6-6--I
    D--6h---6--6-6--6-6h---6--6-6--6-6h---6--6-6--6-6--I
    
    
    Riff…
  • Tune down half a step to Eb.
    
    Main riff
    e|------------------------|
    B|------------------------|
    G|------------------------|
    D|------------------------|
    A|------------------------|
    E|-0-0-000-0-0-00-0-0-000-|
    
    Verses 1 &…
  • Tune down to Eb (half a step).
    Riff A
    e|------------------------------|
    B|------------------------------|
    G|------------------------------|
    D|-7-777710101010105-55555-5555-|
    A|-5-55558-8-8-8-8-3-33333-3333-|
    E|------------------------------|
    
    Riff…
  • Main Riff (after the bass intro)
    e|-----------------------------|
    B|-----------------------------|
    G|-----------------------------|
    D|------------------------7-7--|
    A|-7-7-5-7--xxxx--7-7-5-7-5-5--|
    E|-5-5-3-5--xxxx--5-5-3-5------|
    
    
    Chorus
    e|---------------------|---------------|
    B|---------------------|---------------|
    G|---------------------|---------------|
    D|-4-44444444444444----|-7-77777777777-|
    A|-2-22222222222222----|-5-55555555555-|
    E|---------------------|---------------|
    
    
    then…
  • Em                     D
    When the stars fall down on me,
    Am                    Em  Riff
    And the sun refuse to shine,
    Em                     D
    Then may the shackles be undone,
    Am                    Em     Riff
    And…
Наверх