Аккорды Muse - New Born

Добавлено: @romashka
Дата добавления: 19 Марта 2013г.
Рейтинг:
0.0
Просмотров: 534
Транспонировать - +
Gtr I
|-7-------7-------|-7-------7-------|-7-------7-------|-7-------7-------|
|---8---8---8---8-|---7---7---7---7-|---8---8---8---8-|---7---7---7---7-|
|-----9-------9---|-----8-------8---|-----9-------9---|-----8-------8---|
|-----------------|-----------------|-----------------|-----------------|
|-----------------|-----------------|-----------------|-----------------|
|-----------------|-----------------|-----------------|-----------------|


Em C G/D B/E
|-7-------7-------|-8-------8-------|-7-------7-------|-7-------7-------|
|---8---8---8---8-|---8---8---8---8-|---8---8---8---8-|---7---7---7---7-|
|-----9-------9---|-----9-------9---|-----7-------7---|-----8-------8---|
|-----------------|-----------------|-----------------|-----------------|
|-----------------|-----------------|-----------------|-----------------|
|-----------------|-----------------|-----------------|-----------------|


Em B/E Em B/E
Gtrs I, II
|-7-------7-------|-7-------7-------|-7-------7-------|-7-------7-------|
|---8---8---8---8-|---7---7---7---7-|---8---8---8---8-|---7---7---7---7-|
|-----9-------9---|-----8-------8---|-----9-------9---|-----8-------8---|
|-----------------|-----------------|-----------------|-----------------|
|-----------------|-----------------|-----------------|-----------------|
|-----------------|-----------------|-----------------|-----------------|


Em C G/D B/E
|-7-------7-------|-8-------8-------|-7-------7-------|-7-------7-------||
|---8---8---8---8-|---8---8---8---8-|---8---8---8---8-|---7---7---7---7-||
|-----9-------9---|-----9-------9---|-----7-------7---|-----8-------8---||
|-----------------|-----------------|-----------------|-----------------||
|-----------------|-----------------|-----------------|-----------------||
|-----------------|-----------------|-----------------|-----------------||


1st. Verse
Em B/E Em B/E
Gtr II
||--7-------7-------|-7-------7-------|-7-------7-------|-7-------7--------|
||o---8---8---8---8-|---7---7---7---7-|---8---8---8---8-|---7---7---7---7--|
||------9-------9---|-----8-------8---|-----9-------9---|-----8-------8----|
||------------------|-----------------|-----------------|------------------|
||o-----------------|-----------------|-----------------|------------------|
||------------------|-----------------|-----------------|------------------|


Em C G/D B/E
3x
|-7-------7-------|-8-------8-------|-7-------7-------|-7-------7--------||
|---8---8---8---8-|---8---8---8---8-|---8---8---8---8-|---7---7---7---7-o||
|-----9-------9---|-----9-------9---|-----7-------7---|-----8-------8----||
|-----------------|-----------------|-----------------|------------------||
|-----------------|-----------------|-----------------|-----------------o||
|-----------------|-----------------|-----------------|------------------||


Em B/E Em B/E
|-7-------7-------|-7-------7-------|-7-------7-------|-7-------7-------|
|---8---8---8---8-|---7---7---7---7-|---8---8---8---8-|---7---7---7---7-|
|-----9-------9---|-----8-------8---|-----9-------9---|-----8-------8---|
|-----------------|-----------------|-----------------|-----------------|
|-----------------|-----------------|-----------------|-----------------|
|-----------------|-----------------|-----------------|-----------------|


H.=H Slower Q=85
Em C G/D B
|-7-------7-------|-8-------8-------|-7-------7-------|-^7--------|-(7)----||
|---8---8---8---8-|---8---8---8---8-|---8---8---8---8-|-^7--------|-(7)----||
|-----9-------9---|-----9-------9---|-----7-------7---|-^8--------|-(8)----||
|-----------------|-----------------|-----------------|-^9--------|-(9)----||
|-----------------|-----------------|-----------------|-^9--------|-(9)----||
|-----------------|-----------------|-----------------|-^7--------|-(7)----||
|
| Gtr III
| 
Наверх