Аккорды Muse - Time Is Running Out

Добавлено: @romashka
Дата добавления: 19 Марта 2013г.
Рейтинг:
0.0
Просмотров: 432
Транспонировать - +
Gtr I (E A D G B E) - 'overdrive'
Gtr II (E A D G B E) - 'Overdrive 2'
Gtr III (E A D G B E) - 'intro bit'
Gtr IV (D A D G B E) - 'Overdrive 3'
Gtr V (E A D G B E) - 'Untitled'

Intro
Q=118
N.C.
4/4
Gtr I
Wx12
|---------|
|---------|
|---------|
|---------|
|---------|
|---------|


Verse
N.C.
Gtr III
H Q Q H Q Q H Q Q H Q Q
||--12----8------|-11----8------|------7--12--|-13----10--7----||
||o----------10--|----------10--|-9-----------|---------------o||
||---------------|--------------|-------------|----------------||
||---------------|--------------|-------------|----------------||
||o--------------|--------------|-------------|---------------o||
||---------------|--------------|-------------|----------------||


Pre-Chorus
F5 G5 A5 G5
Gtr II
E E E E E E E E E E E E E E E E E E E E E E E E E E E E E E E E
| | | | | | | | | | | | | | | | | | | | | | | | | | | | | | | |
/ / / / / / / / / / / / / / / / / / / / / / / / / / / / / / / /

Gtr I
PM------------------------------------------------------------------|
E E E E E E E E E E E E E E E E E E E E E E E E E E E E E E E E
|-----------------|-----------------|-----------------|-----------------|
|-----------------|-----------------|-----------------|-----------------|
|-4-4-4-5-5-5-5-5-|-7-7-7-5-5-5-4-4-|-4-4-4-5-5-5-5-5-|-7-7-7-5-5-5-4-4-|
|-3-3-3-3-3-3-3-3-|-5-5-5-5-5-5-5-5-|-3-3-3-3-3-3-3-3-|-5-5-5-5-5-5-5-5-|
|-----------------|-----------------|-----------------|-----------------|
|-----------------|-----------------|-----------------|-----------------|


F5 G5 A5
E E E E E E E E E E E E E E E E E E E E E E E E
| | | | | | | | | | | | | | | | | | | | | | | |
/ / / / / / / / / / / / / / / / / / / / / / / /

PM------------------------------|
E E E E E E E E E E E E E E E E E E E E E E E E
|-----------------|-----------------|-----------------|
|-----------------|-----------------|-----------------|
|-4-4-4-5-5-5-5-5-|-7-7-7-5-5-5-4-4-|-4-4-4-5-5-5-5-5-|
|-3-3-3-3-3-3-3-3-|-5-5-5-5-5-5-5-5-|-3-3-3-3-3-3-3-3-|
|-----------------|-----------------|-----------------|
|-----------------|-----------------|-----------------|


C5
E E E E E E E E
| | | | | | | |
/ / / / / / / /

S S S S S S S S S S S S S S S S
|------------------------------------------|
|------------------------------------------|
|-x-x-x-x-12-12-12-12-10-10-10-10-9-9-9-9--|
|-x-x-x-x--x--x--x--x--x--x--x--x-x-x-x-x--|
|-----x-x-10-10-10-10--8--8--8--8-7-7-7-7--|
|------------------------------------------|


Chorus 1
$ To Coda
F5 G5 A5 C5
E E E E E E E E E E E E E E E E E E E E E E E E E E E E E E E E
| | | | | | | | | | | | | | | | | | | | | | | | | | | | | | | |
/ / / / / / / / / / / / / / / / / / / / / / / / / / / / / / / /

E E E E E E E E E E E E E E E E E E E E E E E E E E E E E E E E
|-----------------|-----------------|-----------------|-----------------|
|-1-1-1-1-1-1-1-1-|-3-3-3-3-3-3-3-3-|-5-5-5-5-5-5-5-5-|-5-5-5-5-5-5-5-5-|
|-5-5-5-5-5-5-5-5-|-4-4-4-4-4-4-4-4-|-5-5-5-5-5-5-5-5-|-5-5-5-5-5-5-5-5-|
|-3-3-3-3-3-3-3-3-|-5-5-5-5-5-5-5-5-|-7-7-7-7-7-7-7-7-|-5-5-5-5-5-5-5-5-|
|-3-3-3-3-3-3-3-3-|-5-5-5-5-5-5-5-5-|-7-7-7-7-7-7-7-7-|-3-3-3-3-3-3-3-3-|
|-1-1-1-1-1-1-1-1-|-3-3-3-3-3-3-3-3-|-5-5-5-5-5-5-5-5-|-----------------|


F5 G5 A5 F5 C5F5G5 D5G5
E E E E E E E E E E E E E E E E E E E E E E E E E E E E E E E E
| | | | | | | | | | | | | | | | | | | | | | | | | | | | | | | |
/ / / / / / / / / / / / / / / / / / / / / / / / / / / / / / / /

E E E E E E E E E E E E E E E E E E E E E E E E E E E E E E E E
|-----------------|-----------------|-----------------|-----------------|
|-1-1-1-1-1-1-1-1-|-3-3-3-3-3-3-3-3-|-5-5-5-5-5-5-5-5-|-----------------|
|-5-5-5-5-5-5-5-5-|-4-4-4-4-4-4-4-4-|-5-5-5-5-5-5-5-5-|-----5-------7---|
|-3-3-3-3-3-3-3-3-|-5-5-5-5-5-5-5-5-|-7-7-7-7-7-7-7-7-|-3-3-5-3-5-5-7-5-|
|-3-3-3-3-3-3-3-3-|-5-5-5-5-5-5-5-5-|-7-7-7-7-7-7-7-7-|-3-3-3-3-5-5-5-5-|
|-1-1-1-1-1-1-1-1-|-3-3-3-3-3-3-3-3-|-5-5-5-5-5-5-5-5-|-1-1---1-3-3---3-|


Verse/Solo Start
A5 C5A5 B5 A5B5 E5opE5E5open F5 C5F5G5 D5G5
E E E E H E E E E H E E E E H E E E E E E E E
| | | | | | | | | | | | | | | | | | | |
/ / / / / / / / / / / / / / / / / / / /

TP TP TP TP TP TP TP TP TP TP TP TP
H Q Q H Q Q H Q Q H Q Q
|-12-------8------|-11-------8------|---------7--12--|-13-------10---7---|
|-------------10--|-------------10--|-9--------------|-------------------|
|-----------------|-----------------|----------------|-------------------|
|-----------------|-----------------|----------------|-------------------|
|-----------------|-----------------|----------------|-------------------|
|-----------------|-----------------|----------------|-------------------|


A5 C5A5 B5 A5B5
E E E E H E E E E H
| | | | | | | |
/ / / / / / / /

H H H H
||-------------------|------------------|
||o------------------|------------------|
||--
Наверх