Аккорды Музыкант Вещает - Песня из негативных комментариев

Добавлено: @romashka
Дата добавления: 25 Ноября 2018г.
Рейтинг:
0.0
Просмотров: 38
Транспонировать - +
Вся песня играется на аккордах: C D G Em

C                 D                 G                 Em
|-----------------|-----------------|-----------------|-----------------|
|-------3-----1---|-------5-----3---|-------8-----8---|-------7-----0---|
|-----0---0-----0-|-----0---0-----0-|-----0---0-----0-|-----0---0-----0-|
|---2-------2-----|---4-------4-----|---5-------8-----|---5-------5-----|
|-3---------------|-5---------------|-7---------------|-7---------------|
|-----------------|-----------------|-----------------|-----------------|

C         D         G           Em
|-----------------|-----------------|-------------------|------------------|
|-------3-----1---|-------5-----3---|-------12-----12---|-------10-----7---|
|-----0---0-----0-|-----0---0-----0-|-----0----0------0-|-----0----0-----0-|
|---2-------2-----|---4-------4-----|---9--------9------|---9--------9-----|
|-3---------------|-5---------------|-10----------------|-10---------------|
|-----------------|-----------------|-------------------|------------------| 

Проигрыш: C D G E5
          C D G Em

Куплет:
C              D          G
Этот гейский голос так бесит,
                  Em   
Ты играешь на гитаре как лох
C              D       G
Видео выходят раз в месяц
                  Em   
Я боялся, что ты сдох
C       D         G
Каверы полный отстой
                  Em   
В кедах дома ходишь - позор 
C           D       G
Твой канал самый тупой
                  Em   
Снова месяц ждать разбор?
comments powered by Disqus
Наверх