Аккорды МВиПД - Pisdheu (Пиздхуй)

Добавлено: @romashka
Дата добавления: 18 Июня 2017г.
Рейтинг:
0.0
Просмотров: 424
Транспонировать - +
Eb)----------------------------------|----------------------------------|
Bb)----------------------------------|----------------------------------|
Gb)-4-4-4-4-4-4-4-4------------------|----------------------------------|
Db)-4-4-4-4-4-4-4-4--4-4-4-4-4-4-4-4-|-3--------------------------------|
Ab)-2-2-2-2-2-2-2-2--4-4-4-4-4-4-4-4-|-3--------------------------------|
Eb)------------------2-2-2-2-2-2-2-2-|-1---0---1---2---1---0---1---2----|

Eb)----------------------------------|----------------------------------|
Bb)----------------------------------|----------------------------------|
Gb)----------------------------------|----------------------------------|
Db)-------3-------------------4------|-------3-------------------6------|
Ab)----3-----3-------------4-----4---|----3-----3-------------6-----6---|
Eb)-1-------------------2------------|-1-------------------4------------|
Наверх