Аккорды «Mxpx»

Mxpx
MxPx - это поп/панк-группа, образованная в 1992 году в американском городке Бремертон (штат Вашингтон). Группа начиналась как собрание 15-летних мальцов, которые называли себя "Magnified Plaid" и играли типичную для поп\панковых-групп южной Калифорнии того времени музычку. Им не очень-то нравилось собственное название (которое, кстати, произошло от надписи на футболке гитариста), и, в итоге, оно было сокращено до M.P.. Как-то раз оформлявщий афиши Юрий (Yuri - его и впрямь так назвали родители,… Читать полностью... MxPx - это поп/панк-группа, образованная в 1992 году в американском городке Бремертон (штат Вашингтон). Группа начиналась как собрание 15-летних мальцов, которые называли себя "Magnified Plaid" и играли типичную для поп\панковых-групп южной Калифорнии того времени музычку. Им не очень-то нравилось собственное название (которое, кстати, произошло от надписи на футболке гитариста), и, в итоге, оно было сокращено до M.P.. Как-то раз оформлявщий афиши Юрий (Yuri - его и впрямь так назвали родители, по его словам - в честь их школьного друга :) превратил точки в крестики - и вот, название MxPx приклеилось окончательно и безповоротно. Состав группы менялся. Скажем, Энди Хастед (Andy Husted), бывший гитарист, в 1995-м ушёл доучиваться в колледже. Его место занял Том - группе нужно было набираться опыта и поднимать уровень выше их подростковой игры. Правда, Том вообще-то был барабанщиком - и, в итоге, это повлияло на его манеру работы с инструментом. Потом добавились отличные мелодические линии Майка, которые, кстати, заставляют вспомнить южнокалифорнийских панков начала 80-х. До появления MxPx их родной Бремертон был известен в основном благодаря военно-морским верфям, но в 1993-м группа устроила "показ" для звукозаписывающей компании "Christian T&N", причём - в гараже родителей Майка Херреры (Mike Herrera); бедняга столько репетировал накануне, что потерял голос. Затем они перешли к компании "Tooth & Nail Records" и записали у них несколько альбомов: Pokinatcha (1994), Teenage Politics (1995) и Life in General (1996). Затем была работа с "A&M Records", где они первыпустили "Life In General" и записали ещё три студийных альбома: Slowly Going the Way of the Buffalo (1998), The Ever Passing Moment (2000) и Before Everything & After (2003). Позже A&M поглотил медиагигант Universal, и дорожки компании и музыкантов разошлись. В 2005-м был подписан контракт с SideOneDummy Records и выпущены альбомы Panic (2005) и Let's Rock (2006). Также был снова подписан контракт с Tooth & Nail Records и перевыпущен альбом Let it Happen в подарочном издании на DVD. После этого поползли слухи о том, что группа скроется в студии и будт готовить альбом на 2007-й год. Сами музыканты считают своими учителями и музыкльными наставниками группы Bad Religion, Black Flag, blink-182, The Clash, The Cure, Descendents, Green Day, Nirvana, The Offspring, The Pixies, The Smiths, Social Distortion, Sonic Youth и Weezer. Скрыть...
Популярные аккорды Mxpx:
алфавиту | просмотрам | случайно
  • Lead Part:
    e------------------------------I
    b------------------------------I
    g------------------------------I
    d---------9-11-9-9-8-8-h9-I
    a-----9-9---------------------I
    e-7-7-------------------------I
    
    B
    i want someone…
  • Verse:
    A            C#                             G       F#
    Emotion, is my middle name
    B                      D
    I lay in bed and listen to the rain
    A               C#                                   G       F#
    Put happy…
  • F#         C#
    I remember times I had
          B                C#
    some were happy, some were sad
          F#                 C#
    memories me and my partners in crime
          B             C#
    throwing up a thousand times
          F#…
  • Standard Tuning:EADGBE
    play twice (2x)
    E--------------------------------------------------------------------
    B--------------------------------------------------------------------
    G--------------------------------------------------------------------
    D-------------------------5------5----------5----5----------7-5-0----
    A--------5----5---7-7-7------7------3-3-3-----3-------5-5-5----------
    E--3-3-3----3--------------------------------------------------------…
  • Intro (credit Dave Grohl): E A B E X3 then B
    
    Verse:
    E                     A                    B
    Music today isn't the way it's supposed to be
        E                                 A                            B
    You like…
  • Chord Chart:  A      D      F#        G      B
              e -----|--------|-------|-------|------
              B -----|--------|-------|-------|------
              G -----|----7---|-------|-------|------
              D --7--|----7---|----4--|----5--|----9-…
  • Verse:
    E             A                B                   A
    I can't live without you but I can't live with you either
          E                  A            B             A
    the bands just way too small is all we've got cabin…
  • 1------------------------------------------------------------
    2-----------------------------------------------------------   x4
    3-66666666--5555-5555--10101010-10101010--11111111--13131313
    4-66666666--6666-6666--10101010-10101010--11111111--13131313
    5-44444444--6666-6666--8…
  • |--PM--|:Palm Muted 
    
    Intro: e -------|
           B -------|
           G -------|:A bunch of times
           D ---4---|
           A ---4---|
           E ---2---|
    
    
    I don't want to...
           B9  F#  Db   E
       e --------------------|…
  • ~ Let ring
    > Strum
    p.m. Palm Mute
    
    Drum Roll...
    
    e|--------------------------------------------------------------|
    B|--------------------------------------------------------------|
    G|--------9-9---------------------------------------------------|
    D|--9~~~--9-9--9~~~---------------------------------------------|
    A|--9~~~--7-7--9~~~---------------------------------------------|
    E|--7~~~-------7~~~---------------------------------------------|
    do…
  • Standard Tuning  
    
    
    [Intro]
    e|-------------------------------------------------------------|
    B|-------------------------------------------------------------|
    G|----------------------------77777777-------------------------|
    D|--44-22--77777777----44-22--77777777----(2x)--then---4--2----|
    A|--44-22--77777777----44-22--55555555-----------------4--2----|
    E|--22-00--55555555----22-00---------------------------2--0----|
    
    
    [Verse]
    e|-------------------------------------------------------------|
    B|-------------------------------------------------------------|
    G|--^^^^^^^^--^^^^^^^^---xx-7-xx-7-xx-7------------------------|
    D|--77777777--77777777---xx-7-xx-7-xx-7----4--2----------------|
    A|--77777777--77777777---xx-5-xx-5-xx-5----4--2----------------|
    E|--55555555--44444444---------------------2--0----------------|
    
    e|------------------------------------------------------|
    B|------------------------------------------------------|
    G|--^^^^^^^^--^^^^^^^^---xx-7-xx-7-xx-7-xx-7------------|
    D|--77777777--77777777---xx-7-xx-7-xx-7-xx-7------------|
    A|--77777777--77777777---xx-5-xx-5-xx-5-xx-5------------|
    E|--55555555--44444444----------------------------------|
    
    
    [Pre-chorus]
    e|-------------------------|-------------0-----------------0~--|
    B|-------------------------|------3--------2------------0------|
    G|--44444---------11111----|--------4--------2------------1----|
    D|--44444--77777--22222----|----4--------------2------2--------|
    A|--22222--77777--22222----|--2--------------------------------|
    E|---------55555--00000----|------------------------0----------|
    
    e|---------------------------------------------------------------------------------|
    B|---------------------------------------------------------------------------------|
    G|-^^^^^^^^--^^^^^^^^--xx-7-xx-7-xx-8-xx-8--99999999--77777777--66666666--11111----|
    D|-77777777--77777777--xx-7-xx-7-xx-8-xx-8--99999999--77777777--66666666--22222----|
    A|-77777777--77777777--xx-5-xx-5-xx-6-xx-6--77777777--55555555--44444444--22222----|
    E|-55555555--44444444-----------------------------------------------------00000----|
    
    
    [Chorus]
    e|--55555---44444---55555---55555---55555---55555---22222---77777777---------------|
    B|--55555---55555---55555---55555---66666---55555---22222---77777777---------------|
    G|--66666---66666---66666---77777---77777---66666---44444---99999999---------------|
    D|--77777---66666---77777---77777---77777---77777---44444---99999999---------------|
    A|--77777---44444---77777---55555---55555---77777---22222---77777777---------------|
    E|--55555-----------55555-------------------55555----------------------------------|
    
    e|--55555---44444---55555---55555---55555---77777---2--0--------|--------------------|
    B|--55555---55555---55555---55555---66666---77777---2--0--------|--------------------|
    G|--66666---66666---66666---77777---77777---66666---4--1--------|--------77777-------|
    D|--77777---66666---77777---77777---77777---77777---4--2--77777-|-44-22--77777--4--2-|
    A|--77777---44444---77777---55555---55555---77777---2--2--77777-|-44-22--55555--4--2-|
    E|--55555-----------55555-------------------55555------0--55555-|-22-00---------2--0-|
    
    
    -repeat…
  • Intro:
    D
    
           D        B        G
    Blue Moon
                  A       D      B     G
    You saw me standing alone
                A          D      B     G
    Without a dream in my heart
                A         D     B     G    D
    Without…
  • Intro
    
    E--x--x--x--xxx---x--x--x--xxx---x--x--x--xxx---x--x--x--xxx--------
    B--x--x--x--xxx---x--x--x--xxx---x--x--x--xxx---x--x--x--xxx--------
    G--7--7--7--777---5--5--5--555---x--x--x--xxx---x--x--x--xxx--------  x2
    D--7--7--7--777---5--5--5--555---5--5--5--555---7--7--7--777--------
    A--5--5--5--555---3--3--3--333---5--5--5--555---7--7--7--777--------
    E--x--x--x--xxx---x--x--x--xxx---3--3--3--333---5--5--5--555--------
    (PM)..............................................................
    
    E--x--x--x--xxx---x--x--x--xxx---x--x--x--xxx---x--x--x--xxx--------
    B--x--x--x--xxx---x--x--x--xxx---x--x--x--xxx---x--x--x--xxx--------
    G--7--7--7--777---x--x--x--xxx---5--5--5--555---x--x--x--xxx--------…
  • ~= let ring
    *= palm mute
    X= pick scratch
    / = slide
    
    Intro  
    e|----------------|    |------------|   
    B|----------------|    |------------|   Play the whole
    G|--------777-X-X-|    |-99-X-X-777-|   intro twice
    D|-77-X-X-777-X-X-|…
  • Key:
    ** = Palm Mute
    // = Slide
    
    
    Intro riff 1   
    e|----------------------------------------|
    B|----------------------------------------|
    G|----------------------9-9-9-10-12-------|
    D|-12-12-12-------10-10-------------------|
    A|----------13-10-------------------------|
    E|----------------------------------------|
    
    Intro…
  • Intro/Verse/Chorus
    e|---------------------------------------------------------------------------|
    B|---------------------------------------------------------------------------|
    G|---------7-7-7-9-9-9---------7-7-7-7-4-4-4-4-------------------------------|
    D|-7-7-7-7-7-7-7-9-9-9-7-7-7-7-7-7-7-7-4-4-4-4-------------------------------|
    A|-7-7-7-7-5-5-5-7-7-7-7-7-7-7-5-5-5-5-2-2-2-2-------------------------------|
    E|-5-5-5-5-------------5-5-5-5-----------------------------------------------|
    
    Verse…
  • G            G
    All my love, All my kissin'
    G         C         D
    you don't know what you've been missin
       C                           G
    oh boy, when you're with me oh boy
                           D         C         G
    the…
  • Tuning: normal
    ~= let ring
    X=pick scratch
    *=palm mute
    / =slide
    
    Intro - Guitar 1
    e|-------------------------------------------------|
    B|-------------------------------------------------|
    G|----------------------------------------7-7------|
    D|-9-11-11---9-11-11---9-11-11---9-11-11--7-7------|…
  • > - Let Ring
    . - Palm Mute
    
    Verse1
    e|-------------------------------------------------------|
    b|-------------------------------------------------------|
    g|-------------------------------------------------------|
    d|--6-6-7-7---7777777777777777777777---------------------|
    a|--6-6-7-7---7777777777777777777777---------------------|
    E|--4-4-5-5---5555555555555555555555---------------------|…
  • Play notes more than once
    
    Verse:
    G:---------------------------------------------------------------
    D:---------------------------------------------------------------
    A:------4-----2--------------------------------------------------
    E:---4-----5-----------------------------------------------------
    
    Pre-Chorus:
    G:---------------------------------------------------------------
    D:---------------------------------------------------------------
    A:------2--------------------------------------------------------
    E:---5-----------------------------------------------------------
    
    Chorus:
    G:---------------------------------------------------------------
    D:---------------------------------------------------------------
    A:---7-----2-----------------------------------------------------
    E:------5--------------------------------------------------------
    
    Bridge:
    G:---------------------------------------------------------------
    D:---------------------------------------------------------------
    A:---7--4-----7--4-----------------------------------------------
    E:---------4-----------------------------------------------------…
  • Intro               		          (1)
    G|-----------------------------------------
    D|-----------------------------------------
    A|-----9-10-9-7-9---4-5-4-2-4---5-7-5-4-5-7
    E|--77-------------------------------------
    
    
    (Repeat…
  • *Listen to the CD for exact strumming*
    
       Intro:
       Palm muted...
       e-------------------------------------------------------------|
       B-------------------------------------------------------------|
       G-------------------------------------------------------------|…
  • INTRO  (#1)
    
    G------------------------------------------------
    D------------------------------------------------
    A----5----0----3---------------------------------
    E-------------------3----------------------------
    
    
    VERSE…
  • Intro: (w/ flanger)
    |---------------------------------------------------------------
    |---------------------------------------------------------------
    |----------------------------------------------------------3----
    |--5-5-xxx-5-5-xxx-5-5-xxx-5-5-xxx-5-5-xxx-5-5-xxx-5-5-xxx-3-3--
    |--5-5-xxx-5-5-xxx-5-5-xxx-5-5-xxx-5-5-xxx-5-5-xxx-5-5-xxx-1-3--
    |--3-3-xxx-3-3-xxx-3-3-xxx-3-3-xxx-3-3-xxx-3-3-xxx-3-3-xxx---1--
    
    |---------------------------------------------------------------
    |---------------------------------------------------------------
    |------------------8-8-----8-8-----------------------------3----
    |--5-5-xxx-8-8-xxx-8-8-xxx-8-8-xxx-5-5-xxx-8-8-xxx-333333--3-3--
    |--5-5-xxx-8-8-xxx-6-6-xxx-6-6-xxx-5-5-xxx-8-8-xxx-333333--1-3--
    |--3-3-xxx-6-6-xxx-6-6-xxx-6-6-xxx-3-3-xxx-6-6-xxx-111111----1--
    
    Verse:…
  • There is just one progression throughout, played at different speeds for
    the verse and chorus:
    E-------------------|
    B-------------------|
    G---4---------------|
    D---4---4---6---7---|
    A---2---4---6---7---|
    E-------2---4---5---|…
  • Intro: C
    
    C (With Palm Mute)
    I don't know what to do, don't know what to say
    
    C (With Palm Mute)
    it hurts me to look up when she looks at me that way
    
    G                    F                                       C
    oh…
  • Intro                                   (1)
    G|----------------------------------------|
    D|----6----8----10------------------------|
    A|-8>---8>---8>----8-6--6-4------6-8ring--|
    E|--------------------6----4-6-8----------|
    
    Verse…
  • Tuning: Standard (EADGBe)
    
    Intro
    e|-----------------|
    B|-----------------|
    G|-----5--4--0--4--|
    D|-----------------|
    A|-----------------|
    E|--3--------------|
    
    Verse (*=palm muted)
    e|-----------------------------------------------------|
    B|-----------------------------------------------------|
    G|------------------------------------5-5-555-7-7-777--|
    D|--5555555555555555-4444444444444444-5-5-555-7-7-777--|
    A|--5555555555555555-4444444444444444-3-3-333-5-5-555--|
    E|--3333333333333333-2222222222222222------------------|…
  • standard tuning : EADGBe
    
    intro:
    C, F, G, B  x2
    
    C                         F
    Meeting you was just so unexpected
    C                            G
    I guess I was scared of being rejected
    F                 G
    Since you were so…
  • Verse:
    G:---------------------------------------------------------------
    D:---------------------------------------------------------------
    A:-5>-0>-3>------------------------------------------------------
    E:----------1>---------------------------------------------------
    
    Pre-Chorus:
    G:---------------------------------------------------------------
    D:---------------------------------------------------------------
    A:-555-----------------------------------------------------------
    E:-----55-222222222----------------------------------------------
    
    Chorus:
    G:---------------------------------------------------------------
    D:---------------------------------------------------------------
    A:-------5>-77665533---------------------------------------------
    E:-5>-6>---------------------------------------------------------
    
    Bridge:
    G:---------------------------------------------------------------
    D:---------------------------------------------------------------
    A:---------------------5555--------------------------------------
    E:-5-5653-3536-556-3333------------------------------------------…
  • Main Riff
    =slide down
    e)---------------------------------------------------------------------|
    B)---5--5--7--9--5--5--7--9--10--9--7--5--9--10975------------------|
    G)---------------------------------------------------------------------|
    D)---------------------------------------------------------------------|
    A)---------------------------------------------------------------------|
    E)---------------------------------------------------------------------|
    
    
    Verse
    E5…
  • Tuning:Standard 
                       (Figure out the strumming pattern)
    
    Intro
    
    Guitar 1
    
    e|---------------------------------------------------------------------------| X4
    B|---------------------------------------------------------------------------|
    G|---9--------9--------------------------------------------------------------|
    D|---9--9-----9->---7--------------------------------------------------------|
    A|---7--9-----7-----7->------------------------------------------------------|
    E|------7-----------5--------------------------------------------------------|
    
    Guitar…
  • Intro-bass riff
    
    G--------------------------------------------------------------------
    D--------------------------------------------------------------------
    A-------33---55----5-4-3---------------------------------------------
    E--33-55---33---33---------------------------------------------------
    The…
  • >=play a couple of time
    h=Hammer on
    p=Pull off
    
    Intro/Verse x4
    G|------------|
    D|------------|
    A|----5>-6>---|
    E|-6>---------|
    
       x4
    G|------------------|
    D|------------------|
    A|-----8-6-5---5-6--|
    E|-4-4-------4------|…
  • Intro: Finger picked, clean distortion
    e-3-5-7-5-3--8-10-12-10-8-
    B-------------------------
    G-4-5-7-5-4--9-10-12-10-9-   4x
    D-------------------------
    A-------------------------
    E-------------------------
    
    
    Verses:
    G…
  • Intro Bass Riff 
       --------------------------- 
       --------------------------- 
       -0-3-2-0------------------- 
       ---------3-0-1-0-1-3------- repeat 
    
       c 
       --------- 
       --------- 
       -xx-x-5-- 
       -xx-x-5-- 
       -xx-x-3--…
  • Verse 1:
    I need the kind of girl that knows
    G|--------------------------------|
    D|--------------------------------|
    A|-9-9-9--------------------------|
    E|-------11-11-11-7-7-7-7-7-7-7-7-|
    
    A girl that likes to wear my clothes
    G|-----------------------------|
    D|-----------------------------|
    A|-7-7-7-2-2-2-4-4-4-4-4-4-4-4-|
    E|-----------------------------|
    
    Someone…
  • Standard Tunning(Right): EADGBe
    
    Fig.1: Intro 
    e|-------------------------------------|
    B|-------------------------------------|
    G|-7------------------7-------4-4------|
    D|-7--4-4--5-5--7-7---7--4-4--4-4--5-7-|
    A|-5--4-4--5-5--7-7---5--4-4--2-2--5-7-|
    E|----2-2--3-3--5-5------2-2-------3-5-|
    
    Fig.2:…
  • E-----------------------------------------------------------
    B-8-7------8-7---8-7----------------------------------------
    G----7-9-7----7-9---7-9-7-----------------------------------
    D---------9--------------9-7-9-5----------------------------…
  • Rhythm 1
    G--------------------------------------------------------------------
    D--------------------------------------------------------------------
    A----------3------------------------------------5-------------------
    E----------------------------3-------------------------------1/3----
    Rhythm…
  • Intro(Riff A):
    A, G#, F#, E
    
    Verse:
    Riff A
    Its time to go
       D                F       G
    I dont care who you are or who you know 
                                            / REPEAT
    
    Chorus:
    D               E
    All my favorite…
  • G|-----------------------------------------------------------------------------------0----|
    D|---------------------------2-3-2----------------------------------2--3--2----------|
    A|3-3-3-3-3-3-3--------------------3-----------------------------------------------|
    E|----------------------------------------------1-1-1-1-1-1--/3--------------------|…
  • ~= let ring
    *= palm mute
    X= pick scratch
    / = slide
    
    Intro
    e|---------------|    |----------------|
    B|---------------|    |----------------|
    G|-----2-X-4-X-9-|    |-44444444444444-|
    D|-2-X-2-X-4-X-9-| X3 |-44444444444444-|
    A|-2-X-0-X-2-X-7-|…
  • After Guitar Intro:            (1)
    G|------------------------------
    D|--------2---------------------
    A|--0--2------------------------
    E|------------------------------
    
    
    Prechorus:                     (2)
    G|------------------------------
    D|--2---------------------------
    A|-----2--4--0--2---------------
    E|------------------------------
    
    
    Chorus:…
  • G:--------23--23--5-32-0----23--23-5-32-0---23-----23-532-0----23----235320
    D:333---3---------------00-0---0---------------------------
    A:--------------------------------------------------------11-1-1-33-3------3
    E:---------------------------------------------------------------
    
    
    G:---------------------------------------------------------------
    D:----------------5-33333333-------------------------------------
    A:-3x3x3x33------------------------------------------------------
    E:---------------------------------------------------------------
    
    
    
    G:---------------------------------------------------------------
    D:---------------------------------------------------------------
    A:5555555555555555------------------------------------3333333333333333
    E:-----------------1111111111111111--3333333333333333-
    
    
    
    G:---------------------------------------------------------------
    D:---------------------------------------------------------------
    A:-5555555555555555--1111111111111111--3333333333333333----------
    E:---------------------------------------------------------------
    
    
    G:---------------------------------------------------------------
    D:3x3x3x33-------------------------------------------------------
    A:---------------5-3333333333333333--55555555--33333333--11111111111111111
    E:---------------------------------------------------------------
    
    
    
    G:---------------------------------------------------------------
    D:3333333333333333-----------------------------------------------
    A:------------------3333333333333333--55555555--33333333-1111111111111111
    E:---------------------------------------------------------------
    
    
    
    G:---------------------------------------------------------------
    D:3xx------------------------2xx-3-------------------------------
    A:-----1xx-5xx-1xx-2xx-------------------------------------------
    E:---------------------------------------------------------------…
  • Intro / Verse
    e|-------------------------------------------------------------------------|
    B|-------------------------------------------------------------------------|
    G|--------5-------------------2--------------------------------------------|
    D|--------5---------5---------2----------3---------------------------------|
    A|--------3---------5---------0----------3---------------------------------|
    E|------------------3--------------------1---------------------------------|
    
    >
    
    >
    
    Pre-Chorus
    e|------------------------------------------------------------------------|
    B|------------------------------------------------------------------------|
    G|----------------------------5-------------------------------------------|
    D|-------7----------3---------5-----------5-------------------------------|
    A|-------7----------3---------3-----------5-------------------------------|
    E|-------5----------1---------------------3-------------------------------|
    
    >
    
    Chorus
    e|-----------------------------------------------------------------------|
    B|-----------------------------------------------------------------------|
    G|--------5--------------------------------------------------------------|
    D|--------5----------3----------7-----------5----------------------------|
    A|--------3----------3----------7-----------5----------------------------|
    E|-------------------1----------5-----------3----------------------------|
    
    >
    
    Bass…
  • Intro (part 1):
    
    G-----------------------------------------
    D-----------------------------------------
    A-----------3-3-3-3-----------------3-3---
    E--1-1-1-1------------4-4-4-4-3-3---------
    
    Intro (part2):
    
    G----------------------------------------------------------------------------
    D----------------------------------------------------------------------------
    A---------------3----------------4----------------3--4--4--3--3--1--1--3--3--
    E-1-1-1-1-1--3-----1-1-1-1-1--3----1-1-1-1-1--3------------------------------
    
    (the…
  • ~= let ring
    *= palm mute
    / = slide
    X= pick scratch
    
    Intro - Guitar 1
    e|---------------------|
    B|---------------------|
    G|---------------------|
    D|-5555-4444-2222-3333-|
    A|---------------------|
    E|---------------------|
    
    Intro…
  • Standard tining
    
    
    *=Palm Mute
    
    Intro:
     
    e--------------------------->
    b--------------------------->
    g--------------------------->
    d--8~~~--4~~~--6~~~--11~~~--> 
    a--8~~~--4~~~--6~~~--11~~~-->
    E--6~~~--2~~~--4~~~--9~~~--->
    
    e---------------------------->
    b---------------------------->
    g---------------------------->
    d--8~~~--4~~~--11~~~--13~~~-->
    a--8~~~--4~~~--11~~~--13~~~-->
    E--6~~~--2~~~--9~~~---11~~~-->
    
    Chorus:…
  • Intro: A# chord 
    e-----------------------
    B-----------------------
    G----------------------- part a  x8
    D-8888----8888xxxx(66)--
    A-8888----8888xxxx(44)--
    E-6666----6666xxxx------
    
    then muted
    
    A# / C# / G# / D# /…
  • Verse 1
    e|-2-2-2-2--3-3-3-3----------------------------------------------------------|
    B|-3-3-3-3--3-3-3-3--2-2-2-2-------------------------------------------------|
    G|-2-2-2-2--0-0-0-0--2-2-2-2-------------------------------------------------|
    D|----------0-0-0-0--2-2-2-2-------------------------------------------------|
    A|----------2-2-2-2----------------------------------------------------------|
    E|----------3-3-3-3----------------------------------------------------------|
    Verse…
  • Intro
    G|---------------------------------------------------------------------------|
    D|---------------------------------------------------------------------------|
    A|-------666666-222222-321324--------666666-222222-222-333-444-666-----------|
    E|222222----------------------222222-----------------------------------------|
    
    Verse
    G|---------------------------------------------------------------------------|
    D|---------------------------------------------------------------------------|
    A|--------------------6666-6666-6666-6666-2222-2222-2222-2222-4444-4444------|
    E|2222-2222-2222-2222--------------------------------------------------------|
    
    Verse…
  • 0:00
    
    ---------------------------------------------------------- X2
    ----------------------------------------------------------
    -5555----------7777---------------------------------------
    -5555---7777---7777---5555--------------------------------
    -3333---7777---5555---5555--------------------------------
    --------5555----------3333--------------------------------
    
    
    0:06…
  • Verse            
                  C           F              
       I've been everywhere around the world
           Am                   G
       And finally here tonight
       C                  F
       You seem to be the only one
       Am…
  • Intro: E, A  (repeat while singing na-na-na-na-na)
    
    E, A, F#, B
    
    
    E 						B
    Can someone tell me why I'm feeling this way?
    E						B
    Can someone tell me why this world is so grey?
    F#	   A
    It's never black and white
    F#…
  • Intro                                     (1)
    G|----------------------------------------
    D|----------------------------------------
    A|--4>-5>--5>-7>--4>-5>-7>-5>-------------
    E|----------------------------------------…
  • Intro: X2
    e|------------------------|------------------------|        
    B|------------------------|------------------------|
    G|--------------8--7--5/7-|--------------8--7--5/7-|
    D|-8--8--8-8-8--8--7--5/7-|-5--5--5-5-5--8--7--5/7-|…
  • STANDARD TUNNING  
    E|---------------------------------------------|
     |---------------------------------------------|
     |---------------------------------------------|
     |--8-------------5----------------------------|
     |--6-x6---8------3-x7--5------6-----6-----8---|
    E|---------6-x2---------3-x2---4-x7--4-x2--6-x7|…
  • >=play a couple of time
    				Listen to song for timing
    Intro/Verse
    G|-----------------------------------------|
    D|-----------------------------------------|
    A|-----------------3>------------------3>--|
    E|-3>------------------3>------------------|
    
    G|-----------------------------------------------|
    D|-----------------------------------------------|
    A|----3>--*-----5>-3>--------3>-----5ring-3ring--|…
  • Intro:  play 3x
    -------------------------
    -------------------------
    --55--00--55--00----0---
    -------------------3-----
    End intro with:
    -------------------------
    -------------------------
    -----0--5----------------
    --3----------------------
    
    
    Chorus: …
  • P.M.=Palm Mute
              h= hammer
              
              Intro:
              e---------------------------------------------
              B---------------------------------------------
              G--5-5---5---5---5-5---3-3-3-3-3-3-3----------…
  • Chord Key
                      e----------------------
                      b----------------------
                      g-----5--6-------------
                      d--3--5--6---8---6--5--
                      a--3--3--4---8---6--5--…
  • Part I                                                    (1)
    G|---------------------------------------------------------|
    D|---------------------------------------------------------|
    A|----------------0-77--7-7--0-7--------0-7--0-7-----------|
    E|-0-7--0-7--0-7-----------------54-7>-----------54-7>-----|
    
    
    Chorus…
  • intro and outro
                play this part 2x
    ---------------------------------------------------------|-----------
    -----------------0-2----------------2-0--------------0-2-|-2-0--2-0--
    --------1-1-2-2-----------1-1-2-2------------1-1-2-2-----|----2-----2
    ---0-0----------------0-0----------------0-0-------------|-----------
    
    
    
    
    chorus:
    ------------------------
    --2----------------------  …
  • #1
    
    |-----------------------------------------------------------|
    |-----------------------------------------------------------|
    |---3----6----5-----8---------------------------------------|
    |-----------------------------------------------------------|
    
    #2
    
    |-----------------------------------------------------------|
    |-----------------------------------------------------------|
    |---3--6--9-------------------------------------------------|
    |-----------------------------------------------------------|
    
    #3
    
    |-----------------------------------------------------------|
    |-----------------------------------------------------------|
    |--10-9---8-7---6-5---4-3-----------------------------------|
    |-----------------------------------------------------------|…
  • Standard Tuning
    
    INTRO - 1x (let the beginning chords ring then strum the lat one fastly)
      E|---------------------------------------------------------------------|
      B|---------------------------------------------------------------------|…
  • .=palm mute
    
         Intro                      (Can I Call You Sweetheart)
    E-------------------------------------------------------------------------
    B-------------------------------------------------------------------------
    G-------------------------------------------------------------------------
    D-------------------0------------------77777------------------------0-----
    A---1-1-1-1-0---0-1---3-0-------77777--55555--------1-1-1-1-0---0-1---3-0-
    E-------------3-----------1-----55555-------------------------3-----------1…
  • Intro, Verse & Finale
    G|----------------------------------------|
    D|----------------------------------------|
    A|---------2>--5>--7>---------------------|
    E|-5>--2>---------------------------------|
    
    
    Chorus
    G|----------------------------------------|
    D|----------------------------------------|
    A|-0>--5>------5>-------------------------|
    E|---------0>-----------------------------|…
  • ~= let ring
    *= palm mute
    / = slide
    X= pick scratch
    
    Intro 
    e|------------------------------|
    B|------------------------------|
    G|----------5~----------5-------|
    D|-3~-7~-8~-5~-3~-7~-8~-5-8-7-5-|
    A|-3~-7~-8~-3~-3~-7~-8~-3-8-7-5-|
    E|-1~-5~-6~----1~-5~-6~---6-5-3-|
    
    Verse…
  • Intro
    e----5--4----5--4---5-4-5-------------------------------------------|
    B--5-------5------5-------------------------------------------------|
    G-------------------------------------------------------------------|
    D-------------------------------------------------------------------|
    A-------------------------------------------------------------------|
    E-------------------------------------------------------------------|
    
    
    Chorus
    e--------|--------|--------|----------------------------------------|
    B--------|--------|--------|----------------------------------------|
    G--7-----|--------|--4-----|----------------------------------------|
    D--7-----|--7-----|--4-----|----------------------------------------|
    A--9--X8-|--7-----|--2--X4-|----------------------------------------|
    E--------|--5--X4-|--------|----------------------------------------|
    
    Verse
    e--------|--------|--------|----------------------------------------|
    B--------|--------|--------|----------------------------------------|
    G--------|--7-----|--------|----------------------------------------|
    D--7-----|--7-----|--7-----|----------------------------------------|
    A--7-----|--9--X8-|--7-----|----------------------------------------|
    E--5--X8-|--------|--5--X8-|----------------------------------------|
    
    Chorus
    
    Middle…
  • INTRO
        
    e------------
    b------------
    g------------  (2X)
    d-----7------
    a-----7------
    e-----5------
    
    e-------------------------------------
    b-------------------------------------
    g---------------------------5/-7------…
  • Intro:
    
    e|-------------------------------------------------------------------
     |-------------------------------------------------------------------
     |-------------------------------------------------------------------
     |-------------------------------------------------------------------…
  • ~ = bend
    /u= slide  up
    
    E----------------------------------------------------------------
    B---------------------------9----------9-------------------------
    G--9-9--------9-9------9-9--8-----9-9--8----9-9--9........9~-----
    D--9-9--------9-9------9-9--6-----9-9--6----9-9--9........7~-----
    A--7-7--------7-7------7-7--------7-7-------7-7--7........7~-----
    E----------------------------------------------------------------…
  • e|------------------------------------------------------------------|
    B|----7--9--10--12--10--9------9--10-----9--10-------------------------| 
    G|--------------------------7---------9-------------------------------| 
    D|------------------------------------------------------------------|…
  • [Intro]: (Play this 2x)
    E--------------------------------------------|
    B--------------------------------------------|
    G--4-4-4-5-4--4-4-4-5-4--4-4-4-5-4---5---7---|
    D--5-5-5-5-5--4-4-4-5-4--2-2-2-2-2---5---7---|
    A------------------------------------3---5---|
    E--------------------------------------------|…
  • -----------------------------------------------------------------------------|
    -----------------------------------------------------------------------------|
    -----------------------------------------------------------------------------|
    -5-5------------5-5------------5-5--2-----------5-5--2-----------------------|
    -5-5------------5-5------------5-5--------------5-5--------------------------|
    -3-3------------3-3------------3-3--------------3-3--------------------------|…
  • Intro (Repeat as necessary)               (1)
    G|----------------------------------------
    D|----------------------------------------
    A|-----6-5-4----4-5-6----6-5-4----4-5-6---
    E|--4>-------2>-------4>-------2>---------…
  • standard tuning
    
    ~ = let ring
    r
    e = repeat note
    p
    
    intro
    E---------------------------------------------------|
    B---------------------------------------------------|
    G--10~------8-7--------8-7----8r--8-7-8--10r--10-8-7|2x
    D--10~--8r------8--5r------8--8e---------10e--------|
    A--8-~--8e---------5e---------6p---------8-p--------|
    E-------6p---------3p-------------------------------|…
  • >=Play many timesIntro:
    G:-----------------------------
    D:-----------------------------
    A:-----------------------------
    E:-3>--------------------------
    Verse1
    G:-----------------------------
    D:-----------------------------
    A:----------------2222--3333------
    E:-3333--5555------------------
    Verse2
    G:-----------------------------
    D:-----------------------------
    A:---------22--33--------------
    E:-33--55----------------------
    Pre…
  • Intro (Pickup)				  #1
    G|----------------------------------------
    D|----------------------------------------
    A|--2>------------------------------------
    E|----------------------------------------
    
    Verse					  #2
    G|----------------------------------------
    D|--2>------2>------2>------2>------------
    A|------0>------2>------0>------2>--------
    E|----------------------------------------
    
    Chorus…
  • = SLIDE DOWN
    P.S= PICK SCRAPE
    P.M= PALM MUTED
    X= MUTED NOTE
    
    INTRO
    E|------------10-|
    A|-9-9-9-10-9-X--|
    D|-X-X-X-X--X-12-|(x4)
    G|-7-7-7-12-7----|
    B|---------------|
    e|---------------|
    
    VERSE
    E|----------5-5-5-5--7-7-7-7--3-3-3-3--6-6-6-6--5-5-5-5----------|
    A|-5-5-5-5--7-7-7-7--9-9-9-9--5-5-5-5--8-8-8-8--7-7-7-7--5-5-5-5-|
    D|-7-7-7-7--7-7-7-7--9-9-9-9--5-5-5-5--8-8-8-8--7-7-7-7--X-X-X-X-|
    G|-7-7-7-7-----------------------------------------------7-7-7-7-|
    B|---------------------------------------------------------------|
    e|---------------------------------------------------------------|
    
    
    VERSE(THE…
  • ~= let ring
    *= palm mute
    X= pick scratch
    / = slide
    
    Intro
    e|------------------|
    B|------------------|
    G|--------------7-9-|
    D|-7777-7--7777-7-9-|
    A|-7777-7--7777-5-7-|
    E|-5555-5--5555-----|
    
    Verse 1  (Some people say....)
    e|----------------------------------------------------------------------|
    B|----------------------------------------------------------------------|
    G|-----------------------------------------7777-9999----------------7-9-|
    D|-77-7-77-7-77-7-77-7-44-4-44-4-44-4-44-4-7777-9999-77-7-77-7-77-7-7-9-|
    A|-77-7-77-7-77-7-77-7-44-4-44-4-44-4-44-4-5555-7777-77-7-77-7-77-7-5-7-|
    E|-55-5-55-5-55-5-55-5-22-2-22-2-22-2-22-2-----------55-5-55-5-55-5-----|…
  • Intro              
    G :------------------|
    D :------------------|
    A :3---0---3--0------|
    E :------------------|
    
       Verse
    G :----------------|------------------|
    D :0---------------|------------------|
    A :----2-----------|3-3-0--3-3-0------|
    E…
  • ~= let ring
    *= palm mute
    X= pick scratch
    / = slide
    
    Intro
    e|---------------------|
    B|---------------------|
    G|---------7---------5-|
    D|-555555557-555555555-|  X2
    A|-555555555-555555553-|
    E|-33333333--33333333--|
    
    Verse 1…
  • standard tuning: EADGBe
    
    G                  C
    Cristalena ya she's so cool
    G                      D      C
    Cristalena she's out of control
    Em                                                      C
    Half the time she don't…
  • >means play multiple times
    drums and guitar start
    
    start/chorus
    		
    G---------------------------|
    D-2>------------------------|
    A---------------------------|
    E---------------------------|
    
    	VERSE
    G---------------------------------------------------------------------|
    D---------------------------------5-4-2-0-5-5-4-2-0-5-4-2-0-5-5-4-2-0-|
    A-22222222222222222222------------------------------------------------|
    E---------------------------------------------------------------------|
    
    G---------------------------------------------------|
    D--------------------------------222222222222222222-|
    A-0000000000000000000-------------------------------|
    E---------------------------------------------------|
    	REPEAT…
  • ~=Hold
    *=Palm Mute
    Intro:
    e-|--------------------
    B-|--------------------
    G-|--------------------
    D-|-7-77---------------
    A-|-5-55-7-77-9-99-7-77
    E-|------5-55-7-77-5-55
    
    Riff A:
    Guitar 1:
    e-|----------------------------
    B-|-2--2-2-3-5-3-0--2-2-3-5-3-2
    G-|----------------------------…
  • Key  *  =  CONSULT THE CD FOR THE AMOUNT OF TIMES PLAYED AND THE RHYTHM
    
    G|---------------------------------------------------------------------------|
    D|---------------------------------------------------------------------------|
    A|----------------------6-6-6-6-6-6-----2-2-2-2-2-2--------3--2--1--3--2--4--|
    E|---2-2-2-2-2-2-------------------------------------------------------------|
    
    G|---------------------------------------------------------------------------|
    D|---------------------------------------------------------------------------|
    A|----------------------6-6-6-6-6-6-----2-2-2-2-2-2---------4-4-4-4-4-4------|
    E|---2-2-2-2-2-2-------------------------------------------------------------|
    
    G|---------------------------------------------------------------------------|
    D|---------------------------------------------------------------------------|
    A|---------------6*----------2*---------3--2--1--3--2--4---------------------|
    E|----2*---------------------------------------------------------------------|…
  • intro~
    
    G:--------9-------------------------------------------------------
    D:-----6---9--6-7--6------------------------------------------------
    A:0-7-------------9-----------------------------------------------
    E:---------------------------------------------------------------
    
    verse~…
  • PART 1
    e|--------------------------------------------------------------------|
    B|--------------------------------------------------------------------|
    G|-5------------------------------------------------------------------|
    D|-5----7----5----3--X2-3-3-3-3-3-3-3-3-3-3-3-3-3-3-3-3-3-3-3---------|
    A|-3----7----5----3-----3-3-3-3-3-3-3-3-3-3-3-3-3-3-3-3-3-3-3---------|
    E|------5----3----1-----1-1-1-1-1-1-1-1-1-1-1-1-1-1-1-1-1-1-1---------|…
  • intro
    e|----------|
    B|----------|
    G|-7--------|
    D|-7--------|
    A|-5--------|
    E|----------|
    
    Verse p1
    e|---------------------------------------------------|
    B|---------------------------------------------------|
    G|--------777777-99999999--------777777-99999999-----|
    D|-555555-777777-99999999--55555-777777-99999999-----|
    A|-555555-555555-77777777--55555-555555-77777777-----|
    E|-333333------------------33333---------------------|
    
    Verse…
  • Intro
    
    C#   C#   C#   C#        (let each ring for two measures)
    
    Verse 
    
    G#                
    If we help each other out along the way
                                 G#  C#  G#  C#
    Then maybe everything will be OK
    G#
    Who decides…
  • 1:17
         Riff 1
    E---------------------------------|
    B---------------------------------|
    G-----------------------4h5-4-----|
    D--0-5-4-5-7-5---7-5-7--------7---|2x
    A--------------3------------------|
    E---------------------------------|…
  • Tuning: E,A,D,G,B,e
    
    Intro:
    e|-----------------------------|
    B|-----------------------------|
    G|-7-7-7-7-7-7-7-7-------------|
    D|-7-7-7-7-7-7-7-7-5-9-7-5-7-9-| x4
    A|-5-5-5-5-5-5-5-5-5-9-7-5-7-9-|
    E|-----------------3-7-5-3-5-7-|
    
    Verse:
    e|-------------------------------------------------------------|
    B|-------------------------------------------------------------|
    G|-7-7-7-7-7-7-7-7---------------------------------------------|
    D|-7-7-7-7-7-7-7-7-5-5-5-5-5-5-5-5-9-9-9-9-9-9-9-9-7-7-7-7-5-7-|
    A|-5-5-5-5-5-5-5-5-5-5-5-5-5-5-5-5-9-9-9-9-9-9-9-9-7-7-7-7-5-7-|
    E|-----------------3-3-3-3-3-3-3-3-7-7-7-7-7-7-7-7-5-5-5-5-3-5-|
    
    e|-------------------------------------------------------|
    B|-------------------------------------------------------|
    G|-7-7-7-7-7-7-7-7---------------------------------------|
    D|-7-7-7-7-7-7-7-7-5-5-5-5-5-5-5-5-9-9-9-9-9-9-9-9-7-5-7-|
    A|-5-5-5-5-5-5-5-5-5-5-5-5-5-5-5-5-9-9-9-9-9-9-9-9-7-5-7-|
    E|-----------------3-3-3-3-3-3-3-3-7-7-7-7-7-7-7-7-5-3-5-|
    
    Chorus:
    e|-----------------------------------------------------------------|
    B|-----------------------------------------------------------------|
    G|-7-7-7-7-7-7-7-7-7-7-7-7-7-7-7-7---------------------------------|
    D|-7-7-7-7-7-7-7-7-7-7-7-7-7-7-7-7-5-5-5-5-5-5-5-5-7-7-7-7-7-7-7-7-|
    A|-5-5-5-5-5-5-5-5-5-5-5-5-5-5-5-5-5-5-5-5-5-5-5-5-7-7-7-7-7-7-7-7-|
    E|---------------------------------3-3-3-3-3-3-3-3-5-5-5-5-5-5-5-5-|
    
    e|---------------------------------------------------|
    B|---------------------------------------------------|
    G|-7-7-7-7-7-7-7-7-7-7-7-7-7-7-7-7-------------------|
    D|-7-7-7-7-7-7-7-7-7-7-7-7-7-7-7-7-5-5-5-5-5-5-5-5-7-|
    A|-5-5-5-5-5-5-5-5-5-5-5-5-5-5-5-5-5-5-5-5-5-5-5-5-7-|
    E|---------------------------------3-3-3-3-3-3-3-3-5-|
    
    Fill:
    e|-----------------------------|
    B|-----------------------------|
    G|-7-7-7-7-7-7-7-7-------------|
    D|-7-7-7-7-7-7-7-7-5-9-7-5-7-9-|…
  • After Guitar Intro:                       (1)
    G|----------------------------------------
    D|--------2-------------------------------
    A|--2--2----------------------------------
    E|----------------------------------------
    
    
    Verse:…
  • Intro
    e)-----------------------------------------------------------|
    B)-----------------------------------------------------------|
    G)-----------------------------------------------------------|
    D)---7--7--7--7--X--X--X--7--7--7--7--X--X--X----------------|
    A)---7--7--7--7--X--X--X--7--7--7--7--X--X--X----------------|
    E)---5--5--5--5--X--X--X--5--5--5--5--X--X--X----------------|
    
    e)----------------------------------------------------------|
    B)----------------------------------------------------------|
    G)---7--7--7--7--X--X--X--7--7--7--7--X--X--X---------------|
    D)---7--7--7--7--X--X--X--7--7--7--7--X--X--X---------------|
    A)---5--5--5--5--X--X--X--5--5--5--5--X--X--X---------------|
    E)----------------------------------------------------------|
    
    Verse
    A5…
  • >= play a couple of time
    			               Listen to song for timing
    Intro/Verse x2
    G|------------------|
    D|------------------|
    A|-5>----3>---------|
    E|----5>----3>------|
    
    Part 2 x1
    G|-------------------------------------------------------------|
    D|--------4-4--4--------4-4--4---------------------------------|
    A|-5-5--5--------7-7--7---------------4-4--4--------4-4--4-----|
    E|-----------------------------5-5--5--------7-7--7------------|
    
    G|---------------------------------------------------------------|
    D|--------2-2--2--------2-2--2-----------------------------------|
    A|-3-3--3--------5-5--5---------------2-2--2--------2-2--2-------|
    E|-----------------------------3-3--3--------5-5--5--------3-*---|…
  • INTRO AND VERSE
    G:---------------------------------------------------------------
    D:---------------------------------------------------------------
    A:------------5-------------------------------------------------
    E:-5--0--2----------------------------------------------------
    
    CHORUS
    G:---------------------------------------------------------------
    D:---------------------------------------------------------------
    A:------5------5--7--------------------------------------------
    E:--2------2---------------------------------------------------
    
    HE…
  • >= play a couple of time
    Intro
    G|-------------------------------------------------------------|
    D|-------------------------------------------------------------|
    A|----2>-0>-3-3-3-2-2-2-0-0-----2>-0>-3-3-3-2-2-2-0-0----------|
    E|-3>------------------------3>--------------------------------|
    
    G|-------------------------------------------------------------|
    D|-------------------------------------------------------------|
    A|----2>-0>-3-3-3-2-2-2-0-0-----2>-0>-3-3-3-2-2-2-0-0----------|
    E|-3>------------------------3>--------------------------------|
    
    G|------------------------------------|
    D|------------------------------------|
    A|----3-5----3-5----3-5---------------|
    E|-3------3------3------3ring---------|
    
    Verse
    G|------------------------------------|
    D|------------------------------------|
    A|----2>-0>-3>-----2>-0--3------------|
    E|-3>-----------3>--------------------|
    
    G|------------------------------------|
    D|------------------------------------|
    A|----2>-0>-3>-----2>-0--3------------|
    E|-3>-----------3>--------------------|
    
    Pre-Chorus
    G|-----------------------------------|
    D|-----------------------------------|
    A|-------3>-5>--------3>-5>----------|
    E|-3>-0>--------3>-0>----------------|
    
    Chorus…
  • P= pull DOWN. not off
    
    bass intro: C, G, D twice. figure out the rythem.
    
    guitar: Eb, E, D, C
    
    C G F C 3x
    
    C           F
    what do you call yourself?
    G            D
    What did you call me?
    
    C
    exscuse me but you dont knoe me
    F…
  • intro
    G|-----------------------
    D|------------------0123-	x2
    A|22----------22---------
    E|---33-00-33----33------
    verse
    G|------------------------------------
    D|---------------------------------------0000-----	x2
    A|44444444-------------22222222----------
    E|-------------22222222-----------------0000
    
    G|-----------------------------------
    D|-----------------------22222222---------
    A|22222222---------------------------
    E|--------------33333333----------22222222
    chorus…
  • Tuning:E A D G
    
    Intro : Verse
    
    G[-----------------------[
    D[-----------------------[
    A[-----------5>-------7--[
    E[-7>---4>--------5------[
    
    Chorus :
    
    G[--------------------[
    D[--------------------[
    A[-----5---7----7----5[
    E[--4>---7---7>---5---[…
  • Intro
    G-----
    D-----
    A-----
    E-3---
    
    Verse
    G-----------------------------------------------------------------------------
    D-----------------------------------------------------------------------------
    A----------22222222----------5555-0000----------22222222----------5555-0000---
    E-22222222----------22222222-----------22222222----------22222222-------------
    
    Chorus
    G--------------------------------------------------------------------------------------
    D--------------------------------------------------------------------------------------
    A----------22-55-22-55----------22-55-22-55----------22-55-22-55----------0000000000---
    E-33333333-------------33333333-------------33333333-------------33333333--------------
    
    Bridge
    G-----------------------------------------------------
    D-----------------------------------------------------
    A-22-55------0-22-55------0-5-22-55------0-22-55------
    E-------33-2---------33-2-----------33-2---------33---
    
    Intro,…
  • 1st Verse
    
    D            F#             G             D
    Come on understanding visit me for once today
            B                   A            G
    I'll be grateful, you don't even have to stay
       D                F#…
  • Play notes more than once
    
    Intro:
    G:---------------------------------------------------------------
    D:---------------------------------------------------------------
    A:---4--3--1--------4--3--1---------------------------------
    E:------------1--4-----------2--1--4-------------------------
    
    Verse:
    G:---------------------------------------------------------------
    D:---------------------------------------------------------------
    A:---1--4------------------------------------------------------
    E:---------2--1------------------------------------------------
    
    Chorus:
    G:---------------------------------------------------------------
    D:---------------------------------------------------------------
    A:---1--4-3-4-3-4-3--1------------------------------------
    E:---------------------------------------------------------------
    
    Interlude:
    G:---------------------------------------------------------------
    D:---------------------------------------------------------------
    A:---------------------------------------------------------------
    E:---1--4--6-----1--4--7--6-----1--4--6-----4--1-------4-…
  • Intro:
    ---------------------------------------
    ---------------------------------------
    -------------------------5-5-5---------
    -5-5-5-5-5-5-3-3-3-3-3-3-------3-3-4-5-
    
    Verse:
    -------------------------------------------------
    -------------------------------------------------
    -------------------------5-5-5-5-5-5-------------
    -5-5-5-5-5-5-3-3-3-3-3-3-------------5-5-5-5-5-5-
    
    Chorus:
    -------------------------------------------------
    -------------------------------------------------
    -------------5-5-5-5-5-5-------------------------
    -3-3-3-3-3-3-------------5-5-5-5-5-5-5-5-5-5-5-5-
    
    2nd…
Наверх