Аккорды «My Chemical Romance»

My Chemical Romance
My Chemical Romance – американская рок-группа, основанная в 2001 году в Джерси-Сити, штат Нью-Джерси. В ее состав входят: Джерард Уэй (вокал), Майки Уэй (бас-гитара), Фрэнк Айеро (гитара, бэк-вокал), Рэй Торо (гитара, бэк-вокал). Группа была основана Джерардом Уэем и барабанщиком Мэттом Пелиссьером, которые подружились в старших классах школы. Первой песней, которую они написали была «Skylines and Turnstiles» (написана Джерардом после трагедии 11 сентября, очевидцем которой он явился,что заставило… Читать полностью... My Chemical Romance – американская рок-группа, основанная в 2001 году в Джерси-Сити, штат Нью-Джерси. В ее состав входят: Джерард Уэй (вокал), Майки Уэй (бас-гитара), Фрэнк Айеро (гитара, бэк-вокал), Рэй Торо (гитара, бэк-вокал). Группа была основана Джерардом Уэем и барабанщиком Мэттом Пелиссьером, которые подружились в старших классах школы. Первой песней, которую они написали была «Skylines and Turnstiles» (написана Джерардом после трагедии 11 сентября, очевидцем которой он явился,что заставило его полностью пересмотреть свои взгляды на жизнь и заняться музыкой). Вскоре к ним присоединился гитарист Рэй Торо, старый приятель Джерарда. Группа начинала репетировать на чердаке, в дома Мэтта, и Майки Уэй, брат Джерарда, был настолько впечатлен репетициями, что решил научиться играть на бас-гитаре. Это удалось ему всего-лишь за полгода,и вскоре и он влился в состав группы. Из влияний на коллектив можно выделить Thursday и в меньшей степени Cursive. Большинство композиций MCR – это громкие, скоростные и агрессивные песни, не лишённые мелодики.Свое название группа получила благодаря книге Irvine Welsh «Ecstasy: Three Tales of Chemical Romance» (название придумал басист группы Майки Уэй). Спустя три месяца после образования My Chemical Romance заключили контракт с Eyeball Records и начали запись своего дебютного альбома. Весь студийный процесс занял у них всего десять дней, с 15 по 25 мая 2002 года. Во время записи альбома к группе присоединился гитарист Фрэнк Айеро, до этого игравший в Pencey Prep, которые тоже записывались на Eyeball, но к тому моменту уже распались. My Chemical Romance сравнивали с Thursday. Обе группы — выходцы из Нью-Джерси, соседи по лейблу. Кроме того, продюсированием материала для I Brought You My Bullets, You Brought Me Your Love занимался вокалист группы Thursday Geoff Rickly. После выхода альбома MCR (так часто сокращают My Chemical Romance) принимали участие в гастролях вместе с The Used, и ’Til Death. В 2003 группа подписала контракт с Reprise Records. После тура с Avenged Sevenfold группа начала работу над своим вторым альбомом Three Cheers for Sweet Revenge. Альбом вышел в 2004 и в течение года стал платиновым. С альбома было выпущено четыре сингла «Thank You for the Venom», «I’m Not Okay (I Promise)», «Helena» и «The Ghost of You». После выхода этого альбома к группе пришла мировая слава. MCR принимали участие в Vans Warped Tour 2004, выступали хэдлайнерами первого фестиваля Taste of Chaos, гастролировали вместе с группой Green Day. В 2005 году коллектив выступил в роли хэдлайнеров на Vans Warped Tour. После концертов в Японии в августе 2004 Мэтт Пелиссьер был заменен Бобом Брайаром. Причиной ухода Мэтта назывались частые ошибки, которые он допускал во время концертов, и из-за чего он постоянно конфликтовал с Рэем Торо. В начале 2005 года, группа приняла участие в туре Taste of Chaos, а также на разогреве у Green Day во время их тура American Idiot. Позже они выступали по стране вместе с Alkaline Trio and Reggie и The Full Effect. В этом же году My Chemical Romance и The Used совместно записали кавер-версию хита Дэвида Боуи и Queen «Under Pressure», все средства от продажи которого пошли на благотворительные цели. 21 марта 2006 года MCR выпустили DVD под названием Life on the Murder Scene. В него входит дневник группы от первых дней ее жизни до настоящего момента, живые выступления, а также ранее не публиковавшаяся песня «Desert Song». В октябре 2006 года вышел третий альбом My Chemical Romance The Black Parade, который продюсировал Роб Кавалло (Rob Cavallo), известный по работе с Green Day. Первый сингл с альбома The Black Parade - «Welcome To The Black Parade» - был впервые исполнен на Церемонии вручения наград MTV и 15 октября 2006 года занял лидирующую позицию UK singles chart. Сам же альбом вышел поступил в продажу во второй половине октября 2006 года. Альбом дебютировал на 2-м месте в британском хит-параде, уступив новому альбому Робби Уильямса (Robbie Williams) Rudebox и на 2-м месте в хит-параде журнала Billboard The Billboard 200, уступив саундтреку к диснеевскому телевизионному шоу Hanna Montana. В первую неделю в США альбом был продан тиражом 240 000 копий. В феврале 2007 группа отправилась в мировой тур, а в течение года вышло еще три сингла — «Famous Last Words», «I Don’t Love You» и «Teenagers». В этом же году группа навестила и Россию. В июле 2008 года группа выпустила свое DVD - творение The Black Parade is Dead!. как окончательный аккорд жизни пациента. На пластинку попали 2 концерта, один из которых снимался в Мексике. После группа ушла в отпуск и пообещала фанам новый альбом к лету 2009. Не так давно вышел еще один лайв Venganza (по-испански «Месть»), содержащий на usb-носителе в форме пули 9 видео, не виданных до сих пор, тура времен второго альбома. Барабанщик My Chemical Romance Боб Брайар покинул группу в марте 2010 года. Уход Брайара, о котором было известно по слухам еще несколько недель назад, подтвердил гитарист группы Фрэнк Айеро. «4 недели назад пути My Chemical Romance и Боба Брайара разошлись в разные стороны,» - опубликовал он на официальном веб-сайте. - «Это было нелегким и болезненным решением для всех нас. Мы желаем удачи ему в будущих планах и думаем, что и наши фанаты поддержат нас в этом.» 22 ноября 2010 года вышел в свет альбом Danger Days: The True Lives of the Fabulous Killjoys. Продюсировал его снова Роб Кавалло. Стилистически MCR отошли от своего привычного мрачного образа, новая пластинка - смесь рок-н-ролла, диско и современного рока. Первый сингл «Na Na Na (Na Na Na Na Na Na Na Na Na)», предвещающий альбом вышел 28 сентября 2010 года. За ней последовал интернет-сингл «The Only Hope For Me Is You» 12 октября, скачать его можно было с iTunes. Третьим синглом стала песня «Sing». В течение конца 2012 - начала 2013 года вышли в свет десять би-сайдов альбома Danger Days, записанные в 2009 году под названием Conventional Weapons. 22 марта 2013 года на своем веб-сайте группа обьявила о распаде. Парни сказали, что предыдущие 12 лет были благословением для них, но все хорошее когда-нибудь кончается. Состав: Gerard Way — вокал Mikey Way — бас-гитара Frank Iero — гитара, бэк-вокал Ray Toro — гитара, бэк-вокал Бывшие участники: Matt Pelissier — ударные Bob Bryar — ударные Дискография: I Brought You My Bullets, You Brought Me Your Love (2002) Three Cheers for Sweet Revenge (2004) Life on the Murder Scene (компиляция) (2006) The Black Parade (2006) The Black Parade is Dead! (live) (2008) Danger Days: The True Lives of the Fabulous Killjoys (2010) Conventional Weapons (2012-2013) Скрыть...
Популярные аккорды My Chemical Romance:
алфавиту | просмотрам | случайно
  • Intro/Verse: D A G F A 
    
    GO!
    To un-explain the unforgivable,
    Drain all the blood and give the kids a show.
    By streetlight this dark night,
    A s?©ance down below.
    There're things that I have done, 
    You never should…
  • E5     F#5 E5
    They're gonna clean up your looks
    F#5 E5 F#5 E5    F#5 E5
    With all the lies in the books
    F#5 E5  F#5 E5 F#5 E5 F#5 E5 F#5 E5 B5 C#5 B5
    To make a  citizen   out   of  you
    B5 A5   B5  A5      B5 A5
    Be-cause…
  • INTRO
    C#m                        E     
    Long ago, Just like the hearse, you 
    B      G#m7     A     A/G#  A     C#m    B
    die to get in   again We    are so far from you
     
    VERSE:
    C#m 
    Burning on Just like a 
    E…
  • Gtr I (E A D G B E) - 'Clean'
    Gtr II (E A D G B E) - 'Clean 2'
    Gtr III (E A D G B E) - 'Disтоrтiоn'
    Gtr IV (E A D G B E) - 'Disтоrтiоn 2'
    Gtr V (E A D G B E) - 'Clean 3'
    Gtr VI (E A D G B E) - 'Disтоrтiоn 3'
    
     Inтrо/Verse…
  • | /  slide up
    |   slide down
    | h  hammer-on
    | p  pull-off
    | ~  vibrato
    | +  harmonic
    | x  Mute note
    | b  Bend
    | pb Pre-bend
    | br Bend release
    | pbr Pre-bend release
    | brb Bend release bend
    
    Tuning standard…
  • Em         D                    C
    Sing it up, boy you've got to see what tomorrow brings
    Em         D                    C
    Sing it up, girl you've got to be what tomorrow needs
    Em        D                C…
  • Tuning: Standard
    
    
    E|----------------------------------------------------|
    B|---3-----3-----3------------------------------------|
    G|------2-----2-----2--0-----0-----0-----0--2--0------|
    D|---0--------------------4-----4-----4-----------4---|
    A|---------------------------5------------------------|
    E|----------------------------------------------------|
    
    E|----------------------------------------------------|
    B|---3-----3-----3------------------------------------|
    G|------2-----2-----2--0-----0-----0-----0--2--0------|
    D|------------------------4-----4-----4-----------4---|
    A|---2-----------------------2------------------------|
    E|----------------------------------------------------|
    
    E|----------------------------------------------------|
    B|---3-----3-----3------------------------------------|
    G|------2-----2-----2--0-----0-----0-----0--2--0------|
    D|------------------------4-----4-----4-----------4---|
    A|----------------------------------------------------|
    E|---3-----------------------3------------------------|
    
    E|----------------------------------------------------|
    B|---3-----3-----3------------------------------------|
    G|------2-----2-----2--0-----0-----0-----0--2--0------|
    D|------------------------4-----4-----4-----------4---|
    A|---0-----------------------0------------------------|
    E|----------------------------------------------------|…
  • (Beep-beep...)
    
    Intro - G (Palm muted)  
    
    (Verse)
       G     
    Now come on come all to this tragic affair; 
    Em
    wipe off that make-up, what's in is dispare
      C7
    so throw on the black dress mix in with the lot;…
  • Intro: C G C G
    
    C      G      E7/G#      Am
    Turn away! If you could get me a drink
               Fm
    Of water 'cuz my lips are chapped and faded
         C      G       E7/G#      Am
    Call my aunt,Mary. Help her gather all…
  • Tuning - Standard
    Timing - 6/8  
    I've been working on this, and I couldn't decide if the C shord was Cdiminished or 
    a Cminor, but I'm pretty sure it's the Cminor(with G)
     
    here are some of the chords that are played;
    
    The…
  • Intro : D A Em G
     
    A            D
    When the lights Go out
    Will you take me with you?
    A                Em 
    And carry all this broken bone
                      G
    Through six years down in crowded rooms
    A
    And highways…
  • E | ---3--
    B | ---3--
    G | ------ Cadd9
    D | ---2--
    A | ---3--
    E | --xx--
    
    E | ---2--
    B | ---3--
    G | ------ Dadd4 
    D | ------
    A | --xx--
    E | --xx--
    
    E | ---3--
    B | ---3--
    G | ------ Em7
    D | ---2--
    A | ---2--
    E…
  • INTRO:
    guitars:clean with sustain
     C       Am     F       G     Am      F       G    (C)
    e|0-----------0---------1----------3---------0---------1-----------3---------|
    B|1-----------1---------1----------3---------1---------1-----------3---------|
    G|0-----------2---------4----------0---------2---------4-----------0---------|
    D|2--X8-------2--X8-----3-X8-------0--X8-----2---X8----3---X8------0--X8-----|
    A|3-----------0---------3----------2---------0---------3-----------2---------|
    E|----------------------1----------3-------------------1-----------3---------|
    
    Guitars:…
  • Intro: G F Em Cm
    
    Yeah!
    G
    And if your heart stops beating
     F#m          Bm
    I'll be here wondering
          Em        Cm
    Did you get what you deserve?
                  G
    The ending of your life and if you get to heaven
    F#m…
  • A
    This night
             F#m
    Walk the dead
         C#m        B                 
    In a solitary style and crash the 
    A         F#m
    cemetery gates
           C#m                 B
    In the dress your husband hates
    
        A
    Way…
  • Am
    He calls the mansion not a house but a tomb.
    Am
    He's always choking from the stench and the fume.
    Dm
    The wedding party all collapsed in the room.
    E
    So send my resignation to the bride and the groom.
    Let's Go down!
    
    Am
    This…
  • Intro:
     Guitar 1
    |-----------------|
    |-----------------|
    |-----------------|
    |-9-9-9-9-9-9-9-9-|
    |-7-7-7-7-7-7-7-7-|
    |-----------------|
    |
    |Guitar 2
    |-----------------|
    |-----------------|
    |-----------------|
    |-----------------|
    |---------2-4-6-7-|
    |-----------------|…
  • G       D
     When I was a young boy,
        Em       G       C
    My father, took me into the city
       G    Em    Am   (optional D lead in)
    To see a marching band
           G        D         Em    
    He said, "Son when you grow…
  • Intro Pt I:
    Gtr I
    e:|-12----12----12----12----12----12----12----12----|
    B:|-13----13----13----13----13----13----13----13----|
    G:|----12----12----12----12----12----12----12----12-|
    D:|-------------------------------------------------|
    A:|-------------------------------------------------|
    E:|-------------------------------------------------|
    
    Intro…
  • Intro: Em D C B
     
    VERSE:
    Em C B
    I know a thing about contrition 
    'Cause I got enough to spare 
    And I'll be grantin' your permission 
    Cause you haven't got a prayer 
    I said, hey hallelujah 
    Well come on, sing the…
  • Intro/verse
    |-----------------------------------------------------------------------------|
    |-----------------------------------------------------------------------------|
    |------0-------0--------0------0----------------5-5-5-5---4-4-4-4-------------|
    |----1---1---1---1----6--6---6---6---0-----0----5-5-5-5---4-4-4-4-------------|
    |--3-------3-------3/8------8-------3--3--3-3---3-3-3-3---2-2-2-2-------------|
    |----------------------------------4-----4------3-3-3-3---3-3-3-3-------------|
    hand…
  • Verse 1:
     Am     E 
    Hear the sound 
       Dm       F
    The angels come screaming 
     Am      E
    Down, your voice 
      Dm          F
    I hear you've been bleeding 
     Am      E
    Make your choice 
       Dm          F 
    They say you've…
  • Tuning: Standard.
    
    I couldnt hear the first bit that good, 
    so i just begin with the part when Gerard starts sing.
    e|--------------------------------------------------------------------------|
    B|-----5------4-----2-----4------0------5------4-----5----------------------|
    G|-----4------4-----2-----4------0------4------4-----4----------------------|
    D|--------------------------------------------------------------------------|
    A|---------2------0-----2-------------------2-------------------------------|
    E|--0--------------------------3------0------------0------------------------|
    
    Chorus:
    e|--------------------------------------------------------------------------|
    B|--------------------------------------------------------------------------|
    G|--5---7-------5-------4--------9--7--4------------------------------------|
    D|--5---7---5---5---3---4--------9--7--4------------------------------------|
    A|--3---5---5---3---3---2--------7--5--2------------------------------------|
    E|----------3-------1-------------------------------------------------------|
    
    End…
  • G                           D             Em
    Well let's Go back to the middle of the day that starts it all
    C                              D
    I can't be here to let you know just what I'm feelin'
    D       G           D…
  • C#
    Well it rains and it pours
    When you're out on your own
        A
    If I crash on the couch
    Can I sleep in my clothes?
               F#
    'Cause I've spent the night dancing
    I'm drunk, I suppose
         G#   
    If it looks like…
  • First verse: no guitar just bass.
    
    Per Chorus (Part 1):
    .....vilocigty...........Make You sweat..
    e|--7--------------------8--------------------------------|
    B|--8--------------------8-----------------3--~~---10---~~|
    G|--9--------------------9-----------------4-------11-----|
    D|--9--------------------10--let…
  • VERSE-PALM MUTED
    Dm
    Now I know 
    C    Bb
    That I can't make you stay
    F/A    Gm
    But where's your heart?
    Am    Bb
    But where's your heart?
      C
    But where's your...
    
      Dm
    And I know
       C   Bb
    There's nothing I could…
  • Intro:
    E|----------------------------------------------------------------||
    B|----------------------------------------------------------------||
    G|-55-4444--------------------------------------------------------|| X2
    D|-55-4444-77-5555-33333-55555------------------------------------||
    A|-33-2222-77-5555-33333-55555------------------------------------||
    E|---------55-3333-11111-33333------------------------------------||
    
    C…
  • NOTE: these are basic chords which can also be played as 
    Em/G - G - C/G - D during the choruses.
    
     Em/G:     C/G:
     e|-3-     e|-3-
     B|-3-     B|-3-
     G|-0-     G|-0-
     D|-2-     D|-2-
     A|-2-     A|-3-
     E|-0-…
  • Intro: Bm G A
    
     Bm              F# G F#           
    Sister, I'm not much a poet, but a criminal 
    Bm   Bbm    A
    And you never had a chance
    Bm
    Love it, or leave it, you can't understand 
     A                      F# G…
  • Intro
    verse
    chorus
    bridge 1
    verse
    chorus
    bridge 2
    solo
    verse (PMed this time)
    chorus (X2)
    intro (X2)
    
    (Guitar 1 Frank)
    (Guitar 2 Ray)
    (Guitar 3 Ray durring solo)
    
    Intro (both guitars)
    |-0--0---0-0-0-|
    |-0--0---0-0-0-|
    |-1--1---1-1-1-|
    |-2--2---2-2-2-|
    |-2--2---2-2-2-|
    |-0--0---0-0-0-|
    
    (verse)(X2…
  • Standard :(EBGDAE)
    
    Beginning:
    Rhythm
    e|-|
    b|-|
    g|7|
    d|x|
    a|5|
    E|-|
    
    Intro:
    Lead 
    e|--10--10--10--10------------------------------------------|
    B|------------------10--10--10--10--8--8--8--8--7--7--7--7--|
    G|----------------------------------------------------------|
    D|----------------------------------------------------------|
    A|----------------------------------------------------------|
    E|----------------------------------------------------------|
    
    e|--10--10--10--10------------------------------------------|
    B|------------------10--10--10--10--8--8--8--8--7--7--7--7--|
    G|----------------------------------------------------------|
    D|----------------------------------------------------------|
    A|----------------------------------------------------------|
    E|----------------------------------------------------------|
    
    e|----------------------------------------------------------|
    B|--8--8--8--8--10--10--10--10--5--5--5--5--5--5--5--5------|
    G|----------------------------------------------------------|
    D|----------------------------------------------------------|
    A|----------------------------------------------------------|
    E|----------------------------------------------------------|
    
    e|----------------------------------------------------------|
    B|8--8--8--8--10--10--10--10--12--12--12--12--14--14--14???14-|
    G|----------------------------------------------------------|
    D|----------------------------------------------------------|
    A|----------------------------------------------------------|
    E|----------------------------------------------------------|
    
    Rhythm…
  • Bm
    Stay out of the light
    	 A
    Or the photoghraph that I gave you
    			G
    You can say a prayer if you need to
    			F#
    Or just get in line and I???ll grieve you
    		Bm
    Can I meet you alone
    				  A
    Another night and I???ll…
  • INTRO: E B C# | E B C#
           G# Eb E | E B C#
    
    C#             E           A    F#
    Everyone's a passenger tonight,
     C#         E
    Just another accident,
                  A                    F#
    Well on the freeway of…
  • Guitar 1 Part One 
    e|----------------------------------------------------------------------| 
    B|----------------------------------------------------------------------| 
    G|9--9--119--4--5--8--5--4-----9--9--119--9--11/12--4--5--8--54---------|…
  • Intro: (Piano)
       G  B  C  Cm  D  E Em  D E  A  D
    e|--3---2---0---3----2---0--0----2--0---0---2~------------|
    B|--0---4---1---1----3---0--0----3--0---2---3~------------|
    G|--0---4---0---0----2---1--0----2--1---2---2~------------|
    D|--0---4---2---1----0---2--2----0--2---2---0~------------|
    A|--2-------3--------0---2--2----0--2---0---0~------------|
    E|--3--------------------0--0-------0---------------------|
    
    e|----------14-15-14-------------12-15-14~----|
    B|----12-15----------15-12----13--------------|
    G|--12---------------------14-----------------|
    D|--------------------------------------------|
    A|--------------------------------------------|
    E|--------------------------------------------|
    
    Verse…
  • Intro:
    e|--------------------------------------------------------------------------|
    B|--------------------------------------------------------------------------|
    G|--6-6-6-6-6-6-6-6-6--6-6-6-6-8-9-8-6--9-9-9-8-8-8-8-8--6-6-8-6-5-5-5-5-5--|
    D|--x-x-x-x-x-x-x-x-x--x-x-x-x-x-x-x-x--x-x-x-x-x-x-x-x--x-x-x-x-x-x-x-x-x--|
    A|--4-4-4-4-4-4-4-4-4--x-x-x-x-x-x-x-x--x-x-x-x-x-x-x-x--x-x-x-x-x-x-x-x-x--|
    E|---------------------5-5-5-5-5-5-5-5--7-7-7-7-7-7-7-7--4-4-4-4-4-4-4-4-4--|
    
    e|--------------------------------------------------------------------------|
    B|--------------------------------------------------------------------------|
    G|--6-6-6-6-6-6-6-6-6--6-6-6-6-8-9-8-6--9-9-9-8-8-8-8-8---------------------|
    D|--x-x-x-x-x-x-x-x-x--x-x-x-x-x-x-x-x--x-x-x-x-x-x-x-x--6-6-6-6-6-6-6-6-6--|
    A|--4-4-4-4-4-4-4-4-4--x-x-x-x-x-x-x-x--x-x-x-x-x-x-x-x--6-6-6-6-6-6-6-6-6--|
    E|---------------------5-5-5-5-5-5-5-5--7-7-7-7-7-7-7-7--4-4-4-4-4-4-4-4-4--|…
  • | /  slide up
    |   slide down
    | h  hammer-on
    | p  pull-off
    | ~  vibrato
    | +  harmonic
    | x  Mute note
    | b  Bend
    | pb Pre-bend
    | br Bend release
    | pbr Pre-bend release
    | brb Bend release bend
    
    Tuning: Half-step…
  • Gtr I Frank Iero: Standard Tuning (e,B,G,D,A,E)
    Gtr II Ray Toro: Standard Tuning
    
    All done on a clean setting
    
    Gtr I Frank
    
    e:|--2-2-2-222-2--2-2-2-2-22--2-2-2-2-2-22-2-|
    B:|--3-3-3-333-3--3-3-3-3-33--3-3-3-3-3-33-3-|
    G:|--2-2-2-222-2--4-4-4-4-44--4-2-2-2-2-22-2-|
    D:|------------------------------------------|
    A:|------------------------------------------|
    E:|------------------------------------------|
    
    e:|----------------|
    B:|--------2-2-22--|
    G:|-4-4444-2-2-22--|
    D:|-4-4444-2-2-22--|
    A:|-2-2222---------|
    E:|----------------|
    
    Gtr…
  • Chorus:
    D                       G
    Gravity, don't mean too much to me
                 Bm
    I'm who I've got to be
                   A         A7
    These pigs are after me, after you
    Bm                   D
    Run away like it was…
  • I. INTRO: (0:09 - 0:18)
    Gtr 2
    e|-----------------10~-------------------------|2x
    B|-----12----12--------12~-----10--------------|
    G|--12----12----12---------11~----12-11----11--|
    D|--------------------------------------12-----|
    A|---------------------------------------------|
    E|---------------------------------------------|
    
    II.…
  • Intro and 1st verse:
    e|---------------------------------------------------------------------------|
    B|--------------14-----------------11----------------------------------------|
    G|------11-----------------11-------------------11------13---11--------------|
    D|--13------13--------13-------13----------11-------11-----------11----------|
    A|---------------------------------------------------------------------------|
    E|---------------------------------------------------------------------------|
    
    e|---------------------------------------------------------------------------|
    B|--------------11-------------------11--------------------------------------|
    G|------11------------------11-----------------------------------------------|
    D|--13------13----------12------12-------------------------------------------|
    A|---------------------------------------------------------------------------|
    E|---------------------------------------------------------------------------|
    
    e|----------------11---------------------------------------------------------|
    B|------------14-------------------11----------------------------------------|
    G|------11------------------11------------------11------13---11-----13--11---|
    D|--13-----13-----------13------13----------11------11-----------11----------|
    A|---------------------------------------------------------------------------|
    E|---------------------------------------------------------------------------|
    
    e|---------------------------------------------------------------------------|
    B|--------------------------------------11-----------------------------------|
    G|------11-----13--11-----------11-------------------------------------------|
    D|--11------11--------------12------12---------------------------------------|
    A|---------------------------------------------------------------------------|
    E|---------------------------------------------------------------------------|
    
    e|-----------------11--------------------------------------------------------|
    B|-------------14----------11------------------11-----12p11------------------|
    G|------11-------------13--------------11-------------------13-11---13-11----|
    D|--13-----13----------------------13------13-----------------------------13-|
    A|---------------------------------------------------------------------------|
    E|---------------------------------------------------------------------------|
    
    e|---------------------------------------------------------------------------|
    B|------------11-----------------11------------------------------------------|
    G|------11----------------11-------------------------------------------------|
    D|---13----13---------12------12---------------------------------------------|
    A|---------------------------------------------------------------------------|
    E|---------------------------------------------------------------------------|
    
    Pre…
  • Verse: 0:02
    e|---------------------------------------------------------------------------|
    B|---------------------------------------------------------------------------|
    G|-88888888-44444444----------33333333---------------------------------------|
    D|-88888888-44444444-44444444-33333333---------------------------------------|
    A|-66666666-22222222-44444444-11111111---------------------------------------|
    E|-------------------22222222---------------x2-------------------------------|
    
    e|---------------------------------------------------------------------------|
    B|---------------------------------------------------------------------------|
    G|-88888888-44444444-33333333-33333333---------------------------------------|
    D|-88888888-44444444-33333333-33333333---------------------------------------|
    A|-66666666-22222222-11111111-11111111---------------------------------------|
    E|------------------------------------------x2-------------------------------|
    
    e|---------------------------------------------------------------------------|
    B|---------------------------------------------------------------------------|
    G|-4444444444444444------------------4444444444444444-66666666-77777777------|
    D|-4444444444444444-4444444444444444-4444444444444444-66666666-77777777------|
    A|-2222222222222222-4444444444444444-2222222222222222-44444444-55555555------|
    E|------------------2222222222222222-----------------------------------------|
    
    Chorus:…
  • I. INTRO:
    (Piano)
    e|-------------------|-------------------|4x
    B|-------------------|-------------------|
    G|--5---5---1---1----|--5---5---4---4----|
    D|--5---5---3---3----|--5---5---5---5----|
    A|--3-3-3-3-3---3----|--5---5---5---5----|
    E|----------1-1-1-1--|--3-3-3-3-3-3-3-3--|
    
    Gtr…
  • Cool bass intro:
    G|-------------------|
    D|-------------------|
    A|-7777--------------| x2
    E|-----777788885555--|
    
    Intro:
      E   B   C     A
    e|--------------------------|
    B|--------------------------|
    G|-9999---------------------|
    D|-9999-9999-10101010-7777--|
    A|-7777-9999-10101010-7777--|
    E|------7777--8-8-8-8-5555--|
    
    Verse…
  • Key:
    |:| /n - slide (to fret "n")
    |:| x - mute string
    |:| . - palm mute
    |:| ~ - vibrato
    |:| > - let ring
    [1] Guitar one - distorted throughout
    [2] Guitar one - distorted throughout
    
    Intro:
    [1]
    e|:|-------------|-------------|
    B|:|-------------|-------------|
    G|:|-5---7---9---|-5---7---12--|
    D|:|-------------|-------------|
    A|:|-3---5---7---|-3---5---10--|
    E|:|-------------|-------------|…
  • SOLO
    
        Q       S    S  Q      S  S   Q
    E||-------------------------------------|
    B||-------------------------------------|
    G||--14b-------------------------14b----|
    D||---------14p-12h-14----12h-14--------|
    A||-------------------------------------|
    E||-------------------------------------|…
  • D       A         C#m
    Without a sound I took her down
              F#m
    And dressed in red and blue I squeezed
    D   A       C#m
    Imaginary wedding gown
              F#m
    That you can't wear in front of me
    D       A…
  • Intro:
    -----------------------|
    -----------------------|
    -9--11--12--14--16--14-|
    -9--11--12--14--16--14-| X2
    -7--9---10--12--14--12-|
    -----------------------|
    
    ------------------------------|
    ------------------------------|
    -999999995555555577777777-----|
    -999999995555555577777777-----|
    -777777773333333355555555-----|
    ------------------------------|
    
    Chorus:
    -------------------------------------------------------------|
    -------------------------------------------------------------|
    -121212121212----111111111111111155555555599997777-----------|
    -1212121212121212111111111111111155555555599997777-----------|
    -10101010101012129-9-9-9-9-9-9-9-33333333377775555-----------|
    -------------1010--------------------------------------------|…
  • Intro x4
    C
    (We could get somebody else,
             F       C
    But we want someone like you.
    
    C
    Well, as soon as I get my gun
    I'll point it out the window at the setting sun
    Am
    As soon as I get my gun
    I'll tell you…
  • Intro 
    E|-----------------|
    B|-7-7-7-7-7-7-7-7-|
    G|-7-7-7-7-7-7-7-7-|
    D|-7-7-7-7-7-7-7-7-|
    A|-5-5-5-5-5-5-5-5-|
    E|-----------------|
    
    E|-----------------3-3-3-3--------------------------3-3-3-3----------|
    B|-7-7-7-777-7-7-7-3-3-3-3--7-7-7-787-7-7-7-7-7-7-7-3-3-3-3--7-7-7-7-|
    G|-7-7-7-777-7-7-7-4-4-3-3--7-7-7-777-7-7-7-7-7-7-7-4-4-3-3--7-7-7-7-|
    D|-7-7-7-777-7-7-7-5-5-5-5--7-7-7-777-7-7-7-7-7-7-7-5-5-5-5--7-7-7-7-|
    A|-5-5-5-555-5-5-5-5-5-5-5--5-5-5-555-5-5-5-5-5-5-5-5-5-5-5--5-5-5-5-|
    E|-----------------3-3-3-3--------------------------3-3-3-3----------|
    
    Verse:
    E|-------------------------------------|
    B|-------------------------------------|
    G|-7-7-7-7-6-6-6-6-4-4-4-4-7-7-6-67----|…
  • G           F#
    She got the call
        Bm       A         G
    And then she threw her jacket on
     G              F#       Bm
    And stormed off down the hall
    G            F#
    They got the call
        Bm         A     G
    And picked…
  • standard tuning
    
    This is basicily the whole song ecxept for the chorus:
    e|------------------|
    B|-4/3/4-4/9/4/9/11-|
    G|-4/3/4-4/9/4/9/11-|
    D|-2/1/2-2/7/2/7/9--|
    A|------------------|
    E|------------------|
    
    CHORUS:…
  • Tuning: Standard
     
    Intro:
    E|---------------------------------------------------|
    B|---------------------------------------------------|
    G|---------------------------------------------------|
    D|-11----------------------11-10---------------------|
    A|-11----------------------11-10---------------------|
    E|--9--9-9-9--9-9-9--9-9----9--8--8-8-8--8-8-8--8-8--|
    
    E|---------------------------------------------------|
    B|---------------------------------------------------|
    G|---------------------------------------------------|
    D|-7-----------------------7--10---------------------|
    A|-7-----------------------7--10---------------------|
    E|-5---5-5-5--5-5-5--5-5---5---8--8-8-8--8-8-8--8-8--|
    
    E|---------------------------------------------------|
    B|---------------------------------------------------|
    G|---------------------------------------------------|
    D|-11------------------------10----------------------|
    A|-11------------------------10----------------------|
    E|--9--9-9-9--9-9-9--9-9-9----8--8-8-8--8-8-8--8-8-8-|
    
    E|---------------------------------------------------|
    B|---------------------------------------------------|
    G|---------------------------------------------------|
    D|---------------------------------------------------|
    A|-7------------------------10-10-10-10-10-10-10-10--|
    E|-5---5-5-5--5-5-5--5-5-5---8--8--8--8--8--8--8--8--|
    
    Verse…
  • E
    Saints her protect now!
          B
    Come angels of the lord
          C# (or C#m)
    Come angels of 
          A
    unknown
  • Am         Dm
    Gaze into her killing jar 
       C             E
    I'd sometimes stare for hours (sometimes stare for hours).
       Am         Dm           C             E
    She even poked the holes so I can breathe.
       Am…
  • G# D# C# F# E D#
    e|-----------------|-----------------|-----------------|-----------------|
    B|-----------------|-----------------|-----------------|-----------------|
    G|-----------------|-----------4-----|-----------------|-----------------|
    D|-6---6-4-6---6-4-|-6---6-4-6---6-4-|-----------------|-----------4-----|
    A|-----------------|-----------------|-6---6-4-6---6-4-|-6---6-4-6---6-5-|
    E|-----------------|-----------------|-----------------|-----------------|
    
    e|-----------------|-----------------|-----------------|-----------------|
    B|-----------------|-----------------|-----------------|-----------------|
    G|-----------------|-----------------|-----------------|-----------------|
    D|-----------------|-4---4---4---4-5-|-6---6-4-6---4---|---8-8-8-8-8-8-8-|
    A|-4---4---4---4---|-------6---------|-----------------|---6-6-6-6-6-6-6-|
    E|-------7-------7-|-----------------|-----------------|-----------------|
    
    Na…
  • Tuning: Standard
         EADGBe
    
    x, () - palm mute
    / - slide
    ~ - let ring
    b - bend
    h - hammer on
    . - staccato (play quick and sharp)
    
    Intro:
    e ------------------------------------------------------------------------|
    B…
  • Intro:
    --6-5------------------------------------------------------------------------|
    --5-5-6-6--6-----------------------------------------------------------------|
    --7-5-5-5--5-----------------------------------------------------------------|
    --0---3-3--7-----------------------------------------------------------------|
    -----------------------------------------------------------------------------|
    -----------------------------------------------------------------------------|
    
    Pre-Verse:
    -----------------------------------------------------------------------------|
    -----------------------------------------------------------------------------|
    --7777777777777777-----------------------------------------------------------|
    --7777777777777777-33333333-88877777-----------------------------------------|
    --5555555555555555-33333333-88877777-----------------------------------------|
    -------------------11111111-66655555-----------------------------------------|
    
    Verse:
    -----------------------------------------------------------------------------|
    -----------5555555-----------------------------------------------------------|
    -----------8888888-----------------------------------------------------------|
    -----------0000000-33333333-77777777-----------------------------------------|
    -5-8-7-10----------33333333-77777777-----------------------------------------|
    -------------------11111111-55555555-----------------------------------------|
    
    Pre-Chorus
    -----------------------------------------------------------------------------|
    -----------------------------------------------------------------------------|
    -33333333-66666666-77777777---------33322222-12-10-9-7-6-7-6-2---------------|
    -33333333-66666666-77777777-3333333-33322222---------------------------------|
    -11111111-44444444-55555555-3333333-11100000-10--8-7-5-4-5-4---------------|
    ----------------------------1111111------------------------------------------|
    
    Verse2:
    Tremelo
    -----------------------------------------------------------------------------|
    -----------------------------------------------------------------------------|
    -14----------14----------14--------------------------------------------------|
    ----14-15-12----14-15-12----14-15-12--11-12-14-15----------------------------|
    -----------------------------------------------------------------------------|
    -----------------------------------------------------------------------------|
    
    
    -----------------------------------------------------------------------------|
    -5555555---------------------------------------------------------------------|
    -8888888--14-----------------------------------------------------------------|
    -0000000-----14-15-12-11-12-14-15--------------------------------------------|
    -----------------------------------------------------------------------------|
    -----------------------------------------------------------------------------|
    
    Pre-Chorus:
    -----------------------------------------------------------------------------|
    -----------------------------------------------------------------------------|
    -33333333-66666666-77777777---------33322222-12-10-9-7-6-7-6-2---------------|
    -33333333-66666666-77777777-3333333-33322222---------------------------------|
    -11111111-44444444-55555555-3333333-11100000-10--8-7-5-4-5-4---------------|
    ----------------------------1111111------------------------------------------|
    
    Chorus:
    -----------------------------------------------------------------------------|
    -----------------------------------------------------------------------------|
    -----------------------------------------------------------------------------|
    -7777-tttt-8888-8888-7777-tttt-1212121212121212------------------------------|
    -5555-8888-8888-8888-5555-8888-1010101010101010------------------------------|
    -----------6666-6666---------------------------------------------------------|
    
    Interlude:
    -10-10-10-12-13-13-13-13-13-13-13-13-13-13-13-13-----------------------------|
    -Bend-all-of-these-notes-----------------------------------------------------|
    -----------------------------------------------------------------------------|
    -----------------------------------------------------------------------------|
    -----------------------------------------------------------------------------|
    -----------------------------------------------------------------------------|
    
    Bridge:
    -----------------------------------------------------------------------------|
    -----------------------------------------------------------------------------|
    -----------------------------------------------------------------------------|
    -----------------------------------------------------------------------------|
    --8--7----5-4--0---5--4---5--4-5-7-5-5-4-------------------------------------|
    -----------------------------------------------------------------------------|
    
    -----------------------------------------------------------------------------|
    -----------------------------------------------------------------------------|
    -14-15-17-15-14-10-12--14-15-17-15-14-12-10----------------------------------|
    -----------------------------------------------------------------------------|
    -12-13-15-13-12--8-10--12-13-15-13-12-10--8----------------------------------|
    -----------------------------------------------------------------------------|
    
    
    Chorus:
    -----------------------------------------------------------------------------|
    -----------------------------------------------------------------------------|
    -----------------------------------------------------------------------------|
    -7777-tttt-8888-8888-7777-tttt-1212121212121212------------------------------|
    -5555-8888-8888-8888-5555-8888-1010101010101010------------------------------|
    -----------6666-6666---------------------------------------------------------|
    
    Second…
  • ||-7-----7-----7-----|-7-----5-----3-----|-3-----2-----0-----|
    ||---0-----0-----0---|---0-----0-----0---|---0-----0-----0---|
    ||-----0-----0-----0-|-----0-----0-----0-|-----0-----0-----0-|
    ||-------------------|-------------------|-------------------|
    ||-------------------|-------------------|-------------------|
    ||-0-----------------|-0-----------------|-0-----------------|
    
    |-0-----3-----7-----|-12----12----12----|-12----10----8-----|
    |---0-----0-----0---|---0-----0-----0---|---0-----0-----0---|
    |-----0-----0-----0-|-----0-----0-----0-|-----0-----0-----0-|
    |-------------------|-------------------|-------------------|
    |-------------------|-------------------|-------------------|
    |-0-----------------|-0-----------------|-0-----------------|
    
    |-8-----7-----5-----|-5-----7-----8-----|-7-----8-----7-----|
    |---5-----5-----5---|---5-----5-----5---|---7-----7-----8---|
    |-----5-----5-----5-|-----5-----5-----5-|-----8-----8-----7-|
    |-------------------|-------------------|-------------------|
    |-0-----------------|-0-----------------|-------------------|
    |-------------------|-------------------|-7-----------------|
    
    |-11----8-----7-----|-7-----5-----3-----|-3-----2-----0-----|
    |---7-----7-----7---|---0-----0-----0---|---0-----0-----0---|
    |-----7-----7-----7-|-----0-----0-----0-|-----0-----0-----0-|
    |-------------------|-------------------|-------------------|
    |-------------------|-------------------|-------------------|
    |-7-----------------|-0-----------------|-0-----------------|
    
    |-2-----2-----2-----|-2-----3-----2-----|-0-----0-----0-----|-0--------------|
    |---1-----1-----1---|---0-----0-----0---|---0-----0-----0---|-0--------------|
    |-----2-----2-----2-|-----2-----2-----2-|-----0-----0-----0-|-0--------------|
    |-------------------|-------------------|-2-----------------|----------------|
    |-0-----------------|-2-----------------|-------2-----------|----------------|
    |-------------------|-------------------|-------------3-----|-0--------------|…
  • Intro:
    guitar 1
    e|-----------------------------------------------|
    b|-----------------------------------------------|
    g|-x-666666-4-666666-6-888888-8-999-888----------|
    d|-x-xxxxxx-x-xxxxxx-x-xxxxxx-x-xxx-xxx----------|
    a|-x-444444-2-444444-4-666666-6-777-666----------|
    E|-----------------------------------------------|
    
    e|-----------------------------------------------|
    b|-----------------------------------------------|
    g|-x-666666-4-666666-6-888888-8-888-666----------|
    d|-x-xxxxxx-x-xxxxxx-x-xxxxxx-x-xxx-xxx----------|
    a|-x-444444-2-444444-4-666666-6-666-444----------|
    E|-----------------------------------------------|
    
    guitar…
  • Standard tuning: EADGBe
     
    Intro 1 (when the japanese girl speaks)
    e|-------------------------------------------------|
    B|-------------------------------------------------|
    G|-12-12--10-10------------8-8--------10-10--10-10-|…
  • Guitar 1: Frank Iero (rythm)
    Guitar 2: Ray Toro (lead)
    Guitar 3: Ray Toro overdubbed (lead)
     
    Intro
    Guitar 1 + 2
    e|----------------------------------|
    B|----------------------------------|
    G|----------------------------------|
    D|-33333333666666662222222222222222-|
    A|-33333333666666662222222222222222-|
    E|-11111111444444440000000000000000-|…
  • Tuning: E A D G B E Standard
    
    Guitar 1 - Intro- x8 - 0:01
    e|-------I-----------------------------------------------|
    B|-------I-----------------------------------------------|
    G|-------I-----------------------------------------------|
    D|-------I--------0h2---------------2-----------------3--|
    A|--0-1-I------------------------------------------------|
    E|--0-1-I---0-0---------0-0-0-0--------0-0-0-0-----------|…
  • INTRO:
    E||-------------------------------------|-----------------------------|
    B||--(12)----(12)----(12)---------------|-----------------------------|
    G||---12------12------12---10--10---x---|-------------------------x---|
    D||---12------12------12---10--10---x---|--10----10----10--8--8---x---|
    A||---10------10------10----8---8--(8)--|--10----10----10--8--8---x---|
    E||---------------------------------x---|---8-----8-----8--6--6--(6)--|…
  • Intro:
    Guitar 1:
    (0:00)
    e|-----------------|-----------------|-----------------|-----------------|
    B|-----------------|-----------------|-----------------|-----------------|
    G|-----------------|-----------------|-----------------|-----------------|
    D|-----------------|-----------------|-----------------|-----------------|
    A|-4-4-4-4-6-6-7-7-|-4-4-4-4-6-6-7-7-|-3-3-3-3-4-4-6-6-|-6-6-6-6-4-4-4-4-|
    E|-----------------|-----------------|-----------------|-----------------|
    
    Guitar…
  • GUITARS:
    Guitar 1 - Ray (My chemical romance) standard tuning
    Guitar 2 - Quinn (The Used) Drop D
    Guitar 3 - Frank (My chemical romance) standard tuning
    
    Intro:
    Guitar 3 x5 (clean)
    
    e|-------------------|
    B|-------------------|
    G|-12-11-9/119-7-|
    D|--x-x--x/x-x-x-|
    A|-10-9--7/9--5-|
    E|-------------------|
    
    Guitar…
  • Guitar 1:
    e---0-0-0-0-0-0-0-0--0-0-0-0--0-0-0-0---0--0--0--0--0--0--0--0--0-0-0-0-0-0-0-0---|
    B---5-5-5-5-5-5-5-5--7-7-7-7--4-4-4-4--10-10-10-10-10-10-10-10--9-9-9-9-9-9-9-9---|
    G---------------------------------------------------------------------------------|
    D---------------------------------------------------------------------------------|
    A---------------------------------------------------------------------------------|
    E---------------------------------------------------------------------------------|
    
    e---0-0-0-0-0-0-0-0--0-0-0-0--0-0-0-0---0--0--0--0--0--0--0--0--0-0-0-0-0-0-0-0---|
    B---5-5-5-5-5-5-5-5--7-7-7-7--4-4-4-4--10-10-10-10-10-10-10-12--9-9-9-9-9-9-9-9---|
    G---------------------------------------------------------------------------------|
    D---------------------------------------------------------------------------------|
    A---------------------------------------------------------------------------------|
    E---------------------------------------------------------------------------------|
    
    e---0-0-0-0-0-0-0-0--0-0-0-0--0-0-0-0---0--0--0--0--0--0--0--0--0-0-0-0-0-0-0-0---|
    B---5-5-5-5-5-5-5-5--7-7-7-7--4-4-4-4--10-10-10-10-10-10-10-10--9-9-9-9-9-9-9-9---|
    G---------------------------------------------------------------------------------|
    D---------------------------------------------------------------------------------|
    A---------------------------------------------------------------------------------|
    E---------------------------------------------------------------------------------|
    
    e---0-0-0-0-0-0-0-0--0-0-0-0--0-0-0-0--0-0-0-0-0-0-0-0--0-0-0-0-0-0-0-0---|
    B---5-5-5-5-5-5-5-5--7-7-7-7--4-4-4-4--2-2-2-2-2-2-2-4--0-0-0-0-0-0-0-0---|
    G-------------------------------------------------------------------------|
    D-------------------------------------------------------------------------|
    A-------------------------------------------------------------------------|
    E-------------------------------------------------------------------------|
    
    Guitar…
  • ~ means to slide to the next chord
    P means palm muted
     
    
    --------------------------------------|
    -----7----6~ 5-5----------------------|
    -----6----5~ 4-4------4-x-4-4-3-2-----|
    -----4----3~ 2-2------4-x-4-4-3-2-----|
    -------------------------2-x-2-2-1-0--|
    --------------------------------------|
    
    -------------------------------------|
    -----7----6~…
  • Intro:
    -----------------------------------------------------------|
    -----------------------------------------------------------|
    --11(8)-12(8)-14(8)-16(4)-17(4)---11(8)-12(8)-14(8)-16(8)--|
    --x-(8)-x-(8)-x-(8)-x-(4)-x-(4)---x-(8)-x-(8)-x-(8)-x-(8)--|
    --9-(8)-10(8)-12(8)-14(4)-15(4)---9-(8)-10(8)-12(8)-14(8)--|
    -----------------------------------------------------------|Destored…
  • Intro:
    E----------------------------|
    B----------------------------|
    G-4444444/7777/3333----------|
    D-xxxxxxx/xxxx/xxxx----------| x2
    A-2222222/5555/1111----------|
    E----------------------------|
    
    [Verse 1]
    E----------------------------|
    B----------------------------|
    G-4--------------------------|…
  • Tuning: Standard
    
    Ins.:
    	Gtr 1 Frank Iero
    	Gtr 2 Ray Toro
    
    
    I. INTRO (0:01 - 0:07)
    
    Gtr 
    e|------------------------|
    B|--------------~~--|
    G|------------------------|
    D|------~~-------------|
    A|------------------------|
    E|---------------------|
    
    Gtr…
  • Intro: G#5 F5 C#5 Bb5 Eb5
    
    Verse:
    G#5                      F5
    You don't know a thing about this life
                 C#5
    And we are up for everything it takes
              Bb5          Eb5
    To prove we're not the same as…
Наверх