Аккорды My Darkest Days - Every Lie

Добавлено: @romashka
Дата добавления: 20 Января 2017г.
Рейтинг:
0.0
Просмотров: 215
Транспонировать - +
Интро:
E|----------------------------------|
B|-------------------1--------------|
G|-----2----------------------------|
D|---0---0---5~----3---3---7~-------|
A|---------------1------------------|
D|-0-------3-------------5----------|
(x2)

Куплет 1:
E|---------------------------------|
B|-------------------1-------------|
G|-----2---------------------------|
D|---0---0---5~----3---3---7~------|
A|---------------1-----------------|
D|-0-------3-------------5---------|
(x4)

Вступление в припев:
Now I can't stay... Surrounded by...
E|-1~--------------------------------|
B|-1~--------------------------------|
G|-3~--------------------------------|
D|-3~---------------5--5-------------|
A|-1~---------------5--5-------------|
D|-------------------5--5------------|

Припев:
E|-----------------|
B|-----------------|
G|-----------------|
D|-0---3---8---5---|
A|-0---3---8---5---|
D|-0---3---8---5---|
(x3)

E|-------------------------------------|
B|-------------------------------------|
G|-------------------------------------|
D|-8-8-8-8-8-8-8-8-10-10-10-10---------|
A|-8-8-8-8-8-8-8-8-10-10-10-10---------|
D|-8-8-8-8-8-8-8-8-10-10-10-10---------|

Дальше повторяется
Наверх