Аккорды Неботошнит - Печаль будет длиться вечно

Добавлено: @romashka
Дата добавления: 05 Февраля 2022г.
Рейтинг:
0.0
Просмотров: 54
Транспонировать - +
Intro 
6------------33 Меняются только басы На ноте си 2 раза повторить партию, на соль - один, дальше партия меняется
5-22-----------
4--------------
3-----------2--
2---3232-323---
1-------5------

6----------------------------------------
5-00-----------2222----------------------
4----------------------------555544445555
3-----------------------22222------------
2---3232-3232------22222-----------------
1-------2----2---------------------------

Bm A G
Печаль будет длиться вечно
Печаль будет длиться вечно
Печаль будет длиться вечно
Печаль будет длиться вечно 
Наверх