Аккорды Немного Нервно - Жанна

Добавлено: @romashka
Дата добавления: 16 Августа 2020г.
Рейтинг:
0.0
Просмотров: 23
Транспонировать - +
Проигрыш:
4|----4----4----4----4----5----5----5----5----5----5----5----5----5----5----4----4----4----4
5|---2----2----2----2----3---3----3----3----0----0----0----0----0----0----0----0----0----0--       }x4
6|-0----0----0----0----0---0----0----0----3----3----3----3----3----3----2----2----2----2----

*Первый куплет играется тем же ритмом, что и проигрыш в начале.

Имя мое – подарок рая – 
Не обещает спасения более. 
Кто-то идет – и я замираю, 
Будто в предчувствии боли. 
Ангел приходит ко мне все чаще, 
Созданный из железа и света. 
Господи, не отнимай этой чаши – 
Дай мне войны и победы. 

Em          C               Em
Были у меня волосы, словно мёд. 
Em             D        Em
Руки были, отнимающими боль. 
Em            D        Em
Стали они отнимающими жизнь. 
Em              D                Em
Сталью налился сердца комок в груди. 
C                D          Em    D  C
Ты ли тогда говорил со мной, Господи? 
C             D               C
Ты ли в руки мои клинок вложил? 

4|----4----4----4----4----5----5----5----5----5----5----5----5----5----5----4----4----4----4     
5|---2----2----2----2----3---3----3----3----0----0----0----0----0----0----0----0----0----0--      }x2
6|-0----0----0----0----0---0----0----0----3----3----3----3----3----3----2----2----2----2----

(Дальше боем)
B5 *           С5 *
Слово мое – беда нагая – 
G5                G5♭‎
Мало ли славить тебя делами? 
B5 *         С5 *
Паузы пыток мерю шагами. 
G5                G5♭‎
Время уходит. Костер пылает. 
B5 *               С5 *
Дьявол приходит ко мне все чаще 
G5                   G5♭‎
В мантии белой, в словах Завета. 
B5 *             С5 *
Господи, не отнимай этой чаши – 
G5                G5♭‎
Дай мне войны и победы. 
 
Em          C               Em
Были у меня волосы, словно мёд. 
Em              D       Em
Руки были, отнимающими боль. 
Em             D        Em
Стали они отнимающими жизнь. 
Em              D                Em
Сталью налился сердца комок в груди. 
C                D          Em    D   C
Ты ли тогда говорил со мной, Господи? 
C              D            C
Ты ли в руки мои клинок вложил?

4|----4----4----4----4----5----5----5----5----5----5----5----5----5----5----4----4----4----4     
5|---2----2----2----2----3---3----3----3----0----0----0----0----0----0----0----0----0----0--      }x2
6|-0----0----0----0----0---0----0----0----3----3----3----3----3----3----2----2----2----2----

B5 *                  С5 *
Я взойду на костер весной 
                   G5
Обескровлена и легка, 
                      G5♭‎
Бог простит меня, а пока – 
                          B5 *
Все, кто любят меня – за мной! 
                    С5 *
Взойду на костер весной 
                   G5‎
Обескровлена и легка, 
                      G5♭
Бог простит меня, а пока – 
                          B5 *
Все, кто любят меня – за мной! 
                    С5 *
Взойду на костер весной 
                   G5
Обескровлена и легка, 
                       G5♭
Бог простит меня, а пока – 
                           B5 *   B5 *
Все, кто любят меня – за мной!

Капо на 3-м ладу

* 6- струна звучит открыто
Наверх