Аккорды Нервы - Самый дорогой человек

Добавлено: @romashka
Дата добавления: 27 Января 2022г.
Рейтинг:
0.0
Просмотров: 42
Транспонировать - +
[Припев]:
C#m                                         
И пропадает в миллионах на век, когда-то 
A
Самый дорогой человек, правда
E
Слишком глубокая рана
B
Забывать друг друга пора нам
C#m                                         
Пропадает в миллионах на век, когда-то 
A
Самый дорогой человек, правда
E
Слишком глубокая рана
B
Забывают друг друга...

[Куплет 1]:
C#m                  A
Задержи дыхание на миг
                   E
Ощути какая глубина,
                       B
В моей голове идет война

C#m                 A
Я не принимаю ничего
                          E
Из того что чувствую сейчас
                             B
проводив тебя в последний раз


[Припев]: x2


[Куплет 2]:
C#m                        A
Я слышу твое сердце по ночам
                             E
Тобой пропитан каждый сантиметр
                          B
Я нахожу тебя во всех вещах

C#m                    A
Я тебя никем не заменю
                               E
Внутри меня как будто гаснет свет
                          B
Срываюсь и опять тебе звоню

        C#m
Ты молчишь
   A
Я больше тебе никто
     E                        B
Ты больше мне ничего не простишь


[Припев]: x2

C#m A E B }x2

C#m                                         
Пропадает в миллионах на век, когда-то 
A
Самый дорогой человек, правда
E
Слишком глубокая рана
B
Забывать друг друга...




Вокальная партия:
     C#m                                    A
   И пропадает в миллионах на век, когда-то самый дорогой человек, правда
d|-----------------------------------------------------------------------
A|-----------------------------------------------------------------------
F|-----------------------------------------------------------------------
C|------------------------------------------------------------4-----4--6-
G|---------7-7---7-7-6-6---6---------------7-7---7-7-6-6---6-------------
D|--4-4-4---------------------4----4-4-4---------------------------------

    E                      B
   Слишком глубокая рана  забывать друг друга пора нам
d|----------------------------------------------------------------------
A|----------------------------------------------------------------------
F|---------------------------------------------------------------------------
C|-----------------------------------------------4--------------------------
G|--7--7---6-6-6-6--------------6---6--6--4---6-----6----------------------------
D|------------------4-4----2/4-----------------------------------------------

    C#m                 A                        E                             B
   Задержи дыхание на миг   ощути какая глубина,          в моей голове идет война
   Я не принимаю ничего     из того что чувствую сейчас   проводив тебя в последний раз
d|---------------------------------------------------------------------------------------
A|---------------------------------------------------------------------------------------
F|-----------6-4---------------------6-4--------------------------------4----------------
C|--6-6-6--6-----6--7-6------------7-----6--7-6------------------4-6~-----6~--4-4~-------
G|--------------------------7-7-7--------------------------7-7-7-------------------------
D|---------------------------------------------------------------------------------------

Гитара в D (под свой вокал перестройте).
Наверх