Аккорды НеУмные - Адский цилиндр

Добавлено: @romashka
Дата добавления: 28 Сентября 2020г.
Рейтинг:
0.0
Просмотров: 110
Транспонировать - +
E|-------------------------------------------------------------------------| 
B|-------------------------------------------------------------------------| 
G|-------------------------------------------------------------------------| 
D|-------------------------------------------------------------------------| 
A|-----------------2--2------------------1--1------------------2--2--------| 
E|-0--3--4--3--2----------0--3--4--3--2---------0--3--4--3--2--------------|
Gm F

Проигрыш:
Em F Em Gm Em F Em Gm

Em                         F
Смотрите, дети, на целиндр.
Em                    Gm
Его сварганил Люцифер. 
Em                        F
На Землю он из ада прибыл.
Em                    Gm
У него большой размер.

Припев:
Em      F        Em       F
Старый, вонючий, грязный, пахучий,
Em           F       Em     F
Обшарпанный, драный, адский целиндр.

E|-------------------------------------------------------------------------| 
B|-------------------------------------------------------------------------| 
G|-------------------------------------------------------------------------| 
D|-------------------------------------------------------------------------| 
A|-----------------2--2------------------1--1------------------2--2--------| 
E|-0--3--4--3--2----------0--3--4--3--2---------0--3--4--3--2--------------|
Gm F

Проигрыш:
Em F Em F 

Em                     F
Его Раскольников носил,
Em                       Gm
Ходил с огромным топором. 
Em                     F
Он им старушку замесил.
Em                        Gm
Но не играйте с целиндрОм!

Припев:
Em      F        Em       F
Старый, вонючий, грязный, пахучий,
Em           F       Em     F
Обшарпанный, драный, адский целиндр.

E|-------------------------------------------------------------------------| 
B|-------------------------------------------------------------------------| 
G|-------------------------------------------------------------------------| 
D|-------------------------------------------------------------------------| 
A|-----------------2--2------------------1--1------------------2--2--------| 
E|-0--3--4--3--2----------0--3--4--3--2---------0--3--4--3--2--------------|
Gm F

Em                    F
И сегодня, в наши дни
Жертвой адского целиндра вполне может быть можешь стать ты!

Припев:
Em      F        Em       F
Старый, вонючий, грязный, пахучий,
Em           F       Em     F
Обшарпанный, драный, адский целиндр.

При-хо-ди-те де-ти в ад, Лю-ци-фер вам будет рад. Ха-ха-ха!
E|-------------------------------------------------------------------------| 
B|-------------------------------------------------------------------------| 
G|-------------------------------------------------------------------------| 
D|-------------------2-----------------------------------------------------| 
A|-0--2--3--2--0--2------0--2--3--2--0--2--0-------------------------------| 
E|-------------------------------------------------------------------------|

Бой: удары вниз:)
Наверх